Supermarket All-stars - Tie Breaker Chords & Tabs

 

Tie Breaker Chords & Tabs

Supermarket All-stars Chords & Tabs

Version: 1 Type: Bass Tab 0 ratings
1 star 2 stars 3 stars 4 stars 5 stars
comments

Tie Breaker Bass Tab

Tie Breaker
Supermarket All-Stars
Skanarchy III Comp.
chris-  majorrocky@earthlink.net

INTRO

G:---------------
D:---------------
A:---5-7-5---5---
E:-7-------5---7-

CHORUS
[ Tab from: http://www.guitartabs.cc/tabs/s/supermarket_all_stars/tie_breaker_btab.html ]
G:---------------------------------------
D:---------------------------------------
A:---------------------5-5-5-5--4-4--7-7-
E:-7-7-7-7--4--5-5-5-5-------------------

VERSE

G:----------------
D:----------------
A:----7>----5-----
E:-7>----5>---5-7-
(I THINK ITS CORRECT)

REAPEAT AS NECESSARY

Comments