Superjoint Ritual - The Knife Rises Chords & Tabs

 

The Knife Rises Chords & Tabs

Superjoint Ritual Chords & Tabs

Version: 1 Type: Tab 0 ratings
1 star 2 stars 3 stars 4 stars 5 stars
comments

The Knife Rises Tab

The knife rises

Riff 1

|-------------------|
|-------------------|
|-------------------|
|-------------------|
|-------------------|
|-0-0-7-3---0--7-2--|

Riff 2a

|------------------------------------|
|------------------------------------|
|------------------------------------|
|-9-8----6-7----8-7------------------|
|-7-6----4-5----6-5----777888555444--|
|-------------------///555666333222--|

Riff 2b

|-------------------------------------------|
|-------------------------------------------|
|-------------------------------------------|
|-9-8xxxxxx6-7xxxxxx8-7xxxxxxx--------------|
|-7-6xxxxxx4-5xxxxxx6-5xxxxxxx-77-88-55-44--|
|------------------------------55-66-33-22--|

Riff 3a

|---------------|
|---------------|
|---------------|
|---------------|
|--77-88-55-44--|
|--55-66-33-22--|

Riff 3b

|---------------|
|---------------|
|---------------|
|---------------|
|---------------|
|--55-66-33-22--|

Riff 3c 

|---------------|
|---------------|
|---------------|
|---------------|
|--77-88-55-44--|   gradually speed up 
|--55-66-33-22--|
   .. .. .. ..   p.m.


Fill

|-----|
|-----|
|-----|
|-----|
|--2--|  <--let ring
|--0--|

Riff 4a

|-----------------------------------------------|
|-----------------------------------------------|
|-----------------------------------------------|
|-----------------------------------------------|
|---------8b---------6b---------8b-8-----7------|
|--0---0-----0-0--0-----0-0--0-----6-0-0-5-0-0--|
                                     . .   . .   p.m.

Riff 4b
[ Tab from: http://www.guitartabs.cc/tabs/s/superjoint_ritual/the_knife_rises_tab.html ]
|-----------------------------------------------|
|-----------------------------------------------|
|-----------------------------------------------|
|-----------------------------------------------|
|---------8b---------6b---------8b-8xxxx7xxxx---|
|--0---0-----0-0--0-----0-0--0-----6xxxx5xxxx---|

Riff 4c

|--------------------------------------------|
|--------------------------------------------|
|--------------------------------------------|
|--------------------------------------------|
|---------8b---------6b---------8b-8xxx7xxx--|
|--0---0-----0-0--0-----0-0--0-----6xxx5xxx--|

lead Outro Part I

|-----------------------------------------------| play the 17 and 20 as often
|--(16)/17-17-17-17-17-17-19-20-20-20-20-20-20--| as necessary. I don't have the
|-----------------------------------------------| exact amount of them.
|-----------------------------------------------|
|-----------------------------------------------|
|-----------------------------------------------|

lead gtr. 2 Outro Part II

|------------------------------------------------------|
|------------------------------------------------------|
|--11--12--12--11--12--12--11--12--14--16--14--12--11--|
|------------------------------------------------------|
|------------------------------------------------------|
|------------------------------------------------------|
|------------------------------------------------------|

bass plays kind of Riff 4 now 
lead gtr.1 is in background and plays some variations of Outro Part I
Main guitar is the 2nd with Outro Part II

Order:
Riff 1  x7  2 gtrs.
Riff 2  x4  2 gtrs.
Riff 1  x4  2 gtrs.
Riff 2  x2  2 gtrs.
Riff 2b x2  2 gtrs.
Riff 3a x1  1 gtr.
Riff 3b x1  1 gtr.
Riff 3a x4  2 gtrs.
Riff 3c x4  2 gtrs.
Fill    x1  2 gtrs.                  
Riff 4a x1  2 gtrs. (except the first 3 notes. There's only one guitar)
Riff 4b x1  2 gtrs.
Riff 4c x1  2 gtrs.
Riff 4b x1  2 gtrs.
Lead Outro x1 2 gtrs.
Fill 2  x1  2 gtrs.
Lead gtr.2 Outro Part II x1
Fill 2  x1  1 gtr.
Lead gtr.2 Outro Part II x1
Fill 2  x1  1 gtr.
Lead gtr. 2 Outro Part II x3

End On: E|--11--12--|  <-- let ring
Comments