Superjoint Ritual - Stealing A Page Or Two From The Armed And Radical Pagans Chords & Tabs

 

Stealing A Page Or Two From The Armed And Radical Pagans Chords & Tabs

Superjoint Ritual Chords & Tabs

Version: 1 Type: Tab 0 ratings
1 star 2 stars 3 stars 4 stars 5 stars
comments

Stealing A Page Or Two From The Armed And Radical Pagans Tab

Band- Superjoint Ritual
Song- Stealing A Page Or Two From The Armed And Radical Pagans

Drop C# tuning

Intro
-|----------------------------------|------------------------------------------|
-|----------------------------------|------------------------------------------|
-|----------------------------------|------------------------------------------|
-|----------------------------------|x2----------------------------------------|
-|----------------------------------|------------------------------------------|
-|-55-5555-44-4444-33-333333333333--|------------------------------------------|

Verse
-|----------------------------------|-----------------------------------------|
-|----------------------------------|-----------------------------------------|
-|----------------------------------|-----------------------------------------|
-|----------------------------------|x4---------------------------------------|
-|-55-5555-44-4444-33-333333333333--|-----------------------------------------|
-|-55-5555-44-4444-33-333333333333--|-----------------------------------------|

Fill 1
-|---------------------------------|--------------------------------------------|
-|---------------------------------|--------------------------------------------|
-|---------------------------------|--------------------------------------------|
-|---------------------------------|-Gtr1---------------------------------------|
-|--------10------12------13-------|--------------------------------------------|
-|-5-------------------------------|--------------------------------------------|
 |                                 | x1
-|---------------------------------|--------------------------------------------|
-|---------------------------------|--------------------------------------------|
-|---------------------------------|--------------------------------------------|
-|---------------------------------|-Gtr2---------------------------------------|
-|---------------------------------|--------------------------------------------|
-|-5-5-5-5-5-5-5-5-5-5-5-5-5-5-5-5-|--------------------------------------------|
Pm . . . . . . . . . . . . . . . .

Bridge
-|----------------------------------------------|-------------------------------|
-|----------------------------------------------|-------------------------------|
-|----------------------------------------------|-------------------------------|
-|----------------------------------------------|x1-----------------------------|
-|--3--2--6--1--555-5-5-5-5-5-5-5-5-5-5-5-5-5-5-|-------------------------------|
-|--3--2--6--1--555-5-5-5-5-5-5-5-5-5-5-5-5-5-5-|-------------------------------|
pm              ... . . . . . . . . . . . . . .

-|----------------------------------------------|-----------------------------|
-|----------------------------------------------|-----------------------------|
-|----------------------------------------------|-----------------------------|
-|----------------------------------------------|x1---------------------------|
-|--3--2--6--1--55555555555555555555555555555555|-----------------------------|
-|--3--2--6--1--55555555555555555555555555555555|-----------------------------|
pm              ................................
[ Tab from: http://www.guitartabs.cc/tabs/s/superjoint_ritual/stealing_a_page_or_two_from_the_armed_and_radical_pagans_tab.html ]
-|-------------------------------------------------------------|--------------|
-|-------------------------------------------------------------|--------------|
-|-------------------------------------------------------------|--------------|
-|-------------------------------------------------------------|x1------------|
-|-3--2--6--1--5-5-5-5-5-5-5-5-5-5-5-5-5-5-5-5-5-5-5-5-5-5-5-5-|--------------|
-|-3--2--6--1--5-5-5-5-5-5-5-5-5-5-5-5-5-5-5-5-5-5-5-5-5-5-5-5-|--------------|
pm             . . . . . . . . . . . . . . . . . . . . . . . .
               |<----------------Triplets------------------->|

-|-------------------------|--------------------------------------------------|
-|-------------------------|--------------------------------------------------|
-|-------------------------|--------------------------------------------------|
-|-------------------------|x1------------------------------------------------|
-|-3-3-3-2-2-2-6-6-6-1-1-1-|--------------------------------------------------|
-|-3-3-3-2-2-2-6-6-6-1-1-1-|--------------------------------------------------|
pm . . . . . . . . . . . .

Intro x1
Verse x3

Riff 1
-|-----------------------------------|----------------------------------------|
-|-----------------------------------|----------------------------------------|
-|-----------------------------------|----------------------------------------|
-|-----------------------------------|x1--------------------------------------|
-|-0---------------------------------|----------------------------------------|
-|-0---0-0-0-0-0-0-3-0-4-0-5-0-6-0-7-|----------------------------------------|
pm     . . . . . .   .   .   .   .

Riff 2
-|----------------------------------|-----------------------------------------|
-|----------------------------------|-----------------------------------------|
-|----------------------------------|-----------------------------------------|
-|----------------------------------|x3---------------------------------------|
-|-0--------------------------------|-----------------------------------------|
-|-0--0-0-000-0-0-3-0-4-0-5-0-6-0-7-|-----------------------------------------|
pm    . . ... . .   .   .   .   .

Riff 1 x1
Riff 2 x3

Intro x1

Fill 2
-|--------------------|----------------------------------------------|
-|--------------------|----------------------------------------------|
-|--------------------|----------------------------------------------|
-|--------------------|-x1-------------------------------------------|
-|--------------------|----------------------------------------------|
-|-5-5-5-4-4-4-3--\18-|----------------------------------------------|

Verse x1

Fill 3
-|-----------------|----------------------------------------------------------|
-|-----------------|----------------------------------------------------------|
-|-----------------|----------------------------------------------------------|
-|-----------------|----------------------------------------------------------|
-|-55-5555-44-4444-|--x1------------------------------------------------------|
-|-55-5555-44-4444-|----------------------------------------------------------|

Riff 3
-|----------------------------|-----------------------------------------------|
-|----------------------------|-----------------------------------------------|
-|----------------------------|-----------------------------------------------|
-|----------------------------|x9---------------------------------------------|
-|-3---0-3---0-3---0-4-4-4-4--|-----------------------------------------------|
-|-3---0-3---0-3---0-4-4-4-4--|-----------------------------------------------|

Riff 4
-|------------------|---------------------------------------------------------|
-|------------------|---------------------------------------------------------|
-|------------------|---------------------------------------------------------|
-|------------------|x1-------------------------------------------------------|
-|-8887776665554433-|---------------------------------------------------------|
-|-8887776665554433-|---------------------------------------------------------|

Riff 3 x4
Riff 4 x1
Riff 3 x2
Riff 4 x1
Riff 3 x1
Riff 4 x4
Comments