Superjoint Ritual - Never To Sit Or Stand Again Chords & Tabs

 

Never To Sit Or Stand Again Chords & Tabs

Superjoint Ritual Chords & Tabs

Version: 1 Type: Tab 0 ratings
1 star 2 stars 3 stars 4 stars 5 stars
comments

Never To Sit Or Stand Again Tab

Band- Superjoint Ritual
Song- Never To Sit Or Stand Again

Drop C# tuning


Verse 1 x14
-|-------------------------------|--------------------------------------------|
-|-------------------------------|--------------------------------------------|
-|-------------------------------|--------------------------------------------|
-|-------------------------------|--------------------------------------------|
-|-------------------4---5---6---|--------------------------------------------|
-|--5555555555555555-6---7---8---|--------------------------------------------|
        -16-

Fill 1 x4
-|---------|------------------------------------------------------------------|
-|---------|------------------------------------------------------------------|
-|---------|------------------------------------------------------------------|
-|---------|------------------------------------------------------------------|
-|---------|------------------------------------------------------------------|
-|-3v3v3v3v|------------------------------------------------------------------|


Riff 1a x3
-|----------------------------------------------------------------------|-----|
-|----------------------------------------------------------------------|-----|
-|----------------------------------------------------------------------|-----|
-|----------------------------------------------------------------------|-----|
-|-----------------------------------------------------------------3----|-----|
-|-3v3v3v3v3v3v3v3v3v3v3v3v3v3v3v3v3v3v3v3v3v3v3v3v3v3v3v3v3v3v3v3v3----|-----|
   |  4  | |  4  | |  4  | |  4  | |  4  | |  4  | |  4  | |  4  |

Riff 1b x1
-|------------------------------------------------|---------------------------|
-|------------------------------------------------|---------------------------|
-|------------------------------------------------|---------------------------|
-|------------------------------------------------|---------------------------|
-|---------------------------------5------5-------|---------------------------|
-|-3v3v3v3v3v3v3v3v3v3v3v3v3v3v3v3v5------5-------|---------------------------|
   |  4  | |  4  | |  4  | |  4  |


Verse 2 x4
-|----------------------------------------------------------------------------|
-|----------------------------------------------------------------------------|
-|----------------------------------------------------------------------------|
-|----------------------------------------------------------------------------|
-|-------------------5---6---5--------------------5---6---5-------------------|
-|--5555555555555555-7---8---7---5555555555555555-7---8---7-------------------|


-----------------------------------------------------------|------------------|
-----------------------------------------------------------|------------------|
-----------------------------------------------------------|------------------|
-----------------------------------------------------------|------------------|
------------------5---6---5--------------------------------|------------------|
-5555555555555555-7---8---7---5555555555555555-3---0-3--3-0|------------------|
[ Tab from: http://www.guitartabs.cc/tabs/s/superjoint_ritual/never_to_sit_or_stand_again_tab.html ]
Riff 3 x11
-|---------------|------------------------------------------------------------|
-|---------------|------------------------------------------------------------|
-|---------------|------------------------------------------------------------|
-|---------------|------------------------------------------------------------|
-|---------------|------------------------------------------------------------|
-|-3---0-3--3--0-|------------------------------------------------------------|

Fill 2
-|----------------------|-----------------------------------------------------|
-|----------------------|-----------------------------------------------------|
-|----------------------|-----------------------------------------------------|
-|----------------------|-----------------------------------------------------|
-|--6---5---4---3---2-1-|-----------------------------------------------------|
-|--6---5---4---3---2-1-|-----------------------------------------------------|


Riff 4 x2
-|-------1----------1----------1-------------|--------------------------------|
-|----------3----------3----------3------2---|--------------------------------|
-|--2h3--------2h3--------2h3----------4-----|--------------------------------|
-|-----------------------------------4-------|--------------------------------|
-|-------------------------------------------|--------------------------------|
-|-------------------------------------------|--------------------------------|

Riff 5 x4
-|----------------------------------------|-----------------------------------|
-|----------------------------------------|-----------------------------------|
-|----------------------------------------|-----------------------------------|
-|-------------------------------------2--|-----------------------------------|
-|-----6---------6---------6--------0-----|-----------------------------------|
-|-/6-----2--/6-----3--/6-----2--1--------|-----------------------------------|

Riff 6 x2
-|------------------------------------------------------------------|---------|
-|------------------------------------------------------------------|---------|
-|------------------------------------------------------------------|---------|
-|------------------------------------------------------------------|---------|
-|-7/6--6--7/6--6--7/6--6--5--5--5--7/6--6--7/6--6--7/6--6--2--2--1-|---------|
-|-7/6--6--7/6--6--7/6--6--5--5--5--7/6--6--7/6--6--7/6--6--2--2--1-|---------|

riff 7 x4
-|-----------------------------------------|----------------------------------|
-|-----------------------------------------|----------------------------------|
-|-----------------------------------------|----------------------------------|
-|----------3--3--3--6--6--6---------------|----------------------------------|
-|-0--0--0--1--1--1--4--4--4---------------|----------------------------------|
-|-0--0--0--------------------5h6-4h5-3h4--|----------------------------------|

riff 8 x6
-|----------------------------------------------|-----------------------------|
-|----------------------------------------------|-----------------------------|
-|----------------------------------------------|-----------------------------|
-|----------------------------------------------|-----------------------------|
-|----6h8p6-5-----6h8p6-4-----6h8p6-5--1--2--3--|-----------------------------|
-|-0-----------0-----------0-----------1--2--3--|-----------------------------|

riff 9 x4
-|-------------------------------------------------|--------------------------|
-|-------------------------------------------------|--------------------------|
-|-------------------------------------------------|--------------------------|
-|---------5-4----------5-4----------5-4-----------|--------------------------|
-|-0---0---3-2--0---0---3-2--0---0---3-2--5--5--6--|--------------------------|
-|-0---0--------0---0--------0---0--------5--5--6--|--------------------------|

Riff 5 x4
Verse 2 x4
Riff 3 x11
Fill 2 x1
Riff 3 x8
Comments