Superjoint Ritual - Death Threat Chords & Tabs

 

Death Threat Chords & Tabs

Superjoint Ritual Chords & Tabs

Version: 2 Type: Tab 0 ratings
1 star 2 stars 3 stars 4 stars 5 stars
comments

Death Threat Tab

   
death threat

Symbols:
\  = slide
b  = bend

Riff 1a

|----------------------------------|
|----------------------------------|
|----------------------------------|
|----------------------------------|
|-4-44-44-7-77-77-5-55-55-6-66-66--|
|-2-22-22-5-55-55-3-33-33-4-44-44--|

Fill 

|---------------------------|
|---------------------------|
|---------------------------|
|---------------------------|
|-4\\\-4-4\\\-4-4-4\\\-4-4\-|
|-2\\\-2-2\\\-2-2-2\\\-2-2\-|

Riff 1b

|----------------------------------|
|----------------------------------|
|----------------------------------|
|----------------------------------|
|-4-4-4-4-7-7-7-7-5-5-5-5-6-6-6-6--|
|-2-2-2-2-5-5-5-5-3-3-3-3-4-4-4-4--|

Riff 1c
[ Tab from: http://www.guitartabs.cc/tabs/s/superjoint_ritual/death_threat_tab_ver_2.html ]
|-----------------------------|
|-----------------------------|
|-----------------------------|
|-----------------------------|
|-4-44-44-7-77-77-5-55-55-----|
|-2-22-22-5-55-55-3-33-33-4b--|

Riff 1d (high speed)

|-----------------|
|-----------------|
|-----------------|
|-----------------|
|-4444777755556b--|
|-2222555533334b--|

Riff 1e

|------------------|
|------------------|
|------------------|
|------------------|
|-4444777755556-6--|
|-2222555533334-4--|





Fill II

|-----------------|
|-----------------|
|-----------------|
|-----------------|
|-2----2----2-\\\-|
|-0--0-0--0-0-\\\-|
    .     .

Rhythm Fill

|---------------------|
|---------------------|
|---------------------|
|---------------------|
|-2-2-2-2-222-2-2-----|
|-0-0-0-0-000-0-0-etc-|
  . . . . ... . .
Comments