Superheist - Will The Change Chords & Tabs

 

Will The Change Chords & Tabs

Superheist Chords & Tabs

Version: 1 Type: Bass Tab 0 ratings
1 star 2 stars 3 stars 4 stars 5 stars
comments

Will The Change Bass Tab

   
Title: Will The Change
Artist: Superheist
Album: I.R.C.R

G|-----------9-9--10--10--10--9----------9-9--10--10--12-|X4
D|-----------9-9--9---9---9---9----------9-9--9---9---9--|
A|-------------------------------------------------------|
E|-------------------------------------------------------|
B|-00000--------------------------0000-------------------|


INTRO
C|-----------9-9--10--10--10--9----------9-9--10--10--12-|X4
G|-------------------------------------------------------|
D|-------------------------------------------------------|
A|-------------------------------------------------------|
E|-------------------------------------------------------|
B|-00000--------------------------0000-------------------|

VERSE pt1	  		   X2
C|----------------------------------|
G|----------------------------------|
D|----------------------------------|
A|----------------------------------|
E|--------55-111-3---------55-111-0-|
B|-000000-----------000000----------|

VERSE pt2				X5
C|---------------------------------------|
G|---------------------------------------|
D|---------77-----------------77---------|
A|------------888-7---------------888-10-|
E|-5-55-5-------------5-55-5-------------|
B|---------------------------------------|
[ Tab from: http://www.guitartabs.cc/tabs/s/superheist/will_the_change_btab.html ]
CHORUS						
C|-------------------------------------------------|
G|-------------------------------------------------|
D|-------------------------------------------------|
A|-------------------------------------------------|
E|-------------------------------------------------|
B|-55555555555-66666666666-33333333333-44444444444-|

BRIDGE (VARIATION OF INTRO)
C|-----------9-9--10--10--10--9----------9-10-10-10-12---|
G|-------------------------------------------------------|
D|-------------------------------------------------------|
A|-------------------------------------------------------|
E|-------------------------------------------------------|
B|-00000--------------------------0000-------------------|

INTERLUDE          X4                 X4
C|-------------------------------------|
G|------------------|------------------|
D|------------------|------------------|
A|------------------|------------------|
E|------------------|-6h5-6h5-5685-6h5-|
B|-1h0-1h0-0130-1h0-|------------------|

OUTRO
C|--------|
G|--------|
D|--------|
A|--------|
E|--------|
B|-000000-|

Play it this way and u should do fine:
INTRO
VERSE pt1
VERSE pt2
VERSE pt1
CHORUS
BRIDGE X1
VERSE pt2
VERSE pt1
CHORUS X2
INTERLUDE
CHORUS X2
VERSE pt1
OUTRO
Comments