Superheist - Slide Chords & Tabs

 

Slide Chords & Tabs

Superheist Chords & Tabs

Version: 1 Type: Tab 0 ratings
1 star 2 stars 3 stars 4 stars 5 stars
comments

Slide Tab

   
Slide
S U P E R H E I S T
Tabbed By Aaron Bridgeman (rokken@sicness.net)

http://bogans.arecool.net

TUNING: 7 string guitar

KEY:
pm. = palm mute
x   = dead note
[ Tab from: http://www.guitartabs.cc/tabs/s/superheist/slide_tab.html ]
INTRO / VERSE / PRE-CHORUS:
e|---------------------------------|
B|---------------------------------|
G|---------------------------------|
D|---------------------------------|
A|---------4-4-4-5-5-5-5-5-5-5-5-5-|
E|-2-2-2-2-2-2-2-3-3-3-3-3-3-3-3-3-|
B|-0-0-0-0-------------------------|
pm . . . . . . . . . . . . . . . .

FILL:
e|----------|
B|----------|
G|---0---0--|
D|-----4----|
A|-5--------|
E|----------|
B|----------|
clean

CHORUS:
e|-------|
B|-------|
G|-------|
D|-5---4-|
A|-5---4-|
E|-3---2-|
B|-------|
It's those chords

BREAK:
e|-------------------|
B|-------------------|
G|-------------------|
D|-------------------|
A|-10--9---4---5---2-|
E|-x---x---x---x---x-|
B|-8---7---2---3---0-|
Use those octaves, move around there

THAT'S IT!
Comments