Superheist - Pulse Chords & Tabs

 

Pulse Chords & Tabs

Superheist Chords & Tabs

Version: 1 Type: Tab 0 ratings
1 star 2 stars 3 stars 4 stars 5 stars
comments

Pulse Tab

   
Pulse
S U P E R H E I S T
Tabbed By Aaron Bridgeman (rokken@sicness.net)

http://bogans.arecool.net

Tuning: Drop D (D A D G B e)

KEY:
pm.. = palm mute
~    = sustain
/    = slide up

INTRO:
e|----------------------|
B|----------------------|
G|----------------------|
D|----------------------|
A|-1-0---0--1-0--0-1-3--|
D|-1-0-0-0--1-0--0-1-3--|
pm     .

VERSE: bass only

END OF VERSE:
e|-17/18---------------|
B|-------16/17~~~~~~~~-|
G|---------------------|
D|---------------------|
A|---------------------|
D|---------------------|

PRE-CHORUS: intro riff
[ Tab from: http://www.guitartabs.cc/tabs/s/superheist/pulse_tab.html ]
CHORUS:
e|------------------------------|
B|------------------------------|
G|------------------------------|
D|-0---------3-------5---1--1-1-|
A|-0------3-------5------1--1-1-|
D|-0---3-------5---------1--1-1-|

CHORUS RIFF 2 (used once at end of chorus):
e|-------------------|
B|-------------------|
G|-------------------|
D|-0---------3--1----|
A|-0------3-----1----|
D|-0---3--------1----|

BRIDGE RIFF 1:
e|--------------------|
B|--------------------|
G|--------------------|
D|--------------------|
A|-0-1--0-1--0-1--0-1-|
D|-0-1--0-1--0-1--0-1-|
pm . .  . .  . .  . .

BRIDGE RIFF 2:
e|--------------------|
B|--------------------|
G|--------------------|
D|--------------------|
A|-2/3-0--2/3-0-2/3-0-|
D|-2/3-0--2/3-0-2/3-0-|

THAT'S IT!
Comments