Superheist - Crank The System Chords & Tabs

 

Crank The System Chords & Tabs

Superheist Chords & Tabs

Version: 1 Type: Bass Tab 0 ratings
1 star 2 stars 3 stars 4 stars 5 stars
comments

Crank The System Bass Tab

   
SUPERHEIST
CRANK THE SYSTEM
Album - The Prize Recruit

h = hammer-on
p = pull-off
/\ = slide
X = mute
S = slap
P = pop

INTRO/CHORUS
G|--------------------------------------------|
D|--------------------------------------------|
A|--------------------------------------------|
E|--------------------------------------------|
B|-2-3-33--2-3-33--2244--2-3-33--2-3-33--2200-|
[ Tab from: http://www.guitartabs.cc/tabs/s/superheist/crank_the_system_btab.html ]
VERSE
G|-------|--------------------|-------------|
D|-------|--------------------|-------------|
A|-------|--------------------|-------------|
E|-------|-88888888--77777777-|-------------|
B|-0--00-|--------------------|-00000000000-|

VERSE 3
G|--------------------------|-----------------------|-----|
D|------5------5-5p4------4-|-----------------------|-----|
A|--------------------------|-----------------------|-----|
E|-5x-----5h6---------5X----|-88888888-77777777-----|-----|
B|--------------------------|-----------------------|-\10-|
   SS   P S    P P    SS  P
Comments