Superheist - Bullet Chords & Tabs

 

Bullet Chords & Tabs

Superheist Chords & Tabs

Version: 1 Type: Tab 0 ratings
1 star 2 stars 3 stars 4 stars 5 stars
comments

Bullet Tab

   
Bullet
S U P E R H E I S T
Tabbed By Aaron Bridgeman (rokken@sicness.net)

http://bogans.arecool.net

KEY:
pm. = palm mute
~   = sustain note

TUNING: 7 string guitar (B E A D G B E)

INTRO: (not 100%, but it'll do)
e|------------------------------------------------------------>
B|------------------------------------------------------------>
G|------------------------------------------------------------>
D|------------------------------------------------------------>
A|----------------4--4-4--4-4-4--3--3-3--3-3-3---------------->
E|-2-2-2---2-2-2--2--2-2--2-2-2--1--1-1--1-1-1--5--5-5--5-5-5->
B|-0-0-0---0-0-0--------------------------------3--3-3--3-3-3->

 >------------------------------------------------------------|
 >------------------------------------------------------------|
 >------------------------------------------------------------|
 >------------------------------------------------------------|
 >----------------7--7-7--7-7-7--5--5-5--5-5-5----------------|
 >-2-2-2---2-2-2--5--5-5--5-5-5--3--3-3--3-3-3--5--5-5--5-5-5-|
 >-0-0-0---0-0-0--------------------------------3--3-3--3-3-3-|

work around that.
[ Tab from: http://www.guitartabs.cc/tabs/s/superheist/bullet_tab.html ]
MAIN RIFF:
e|------------------------------------------------------|
B|------------------------------------------------------|
G|------------------------------------------------------|
D|------------------------------------------------------|
A|------4-4------------------------4-4------------------|
E|-2-2--2-2--4-4--4-5--5-5-4--2-2--2-2--4-4--4-5--4-4-7-|
B|-0-0-------2-2--2-3--3-3-2--0-0-------2-2--2-3--2-2-5-|

THEN...:
e|------------------------------------------------------|
B|------------------------------------------------------|
G|------------------------------------------------------|
D|------------------------------------------------------|
A|------4-4------------------------4-4------------------|
E|-2-2--2-2--4-4--4-5--5-5-4--2-2--2-2--4-4--4-5--4-4-7-|
B|-0-0-------2-2--2-3--3-3-2--0-0-------2-2--2-3--2-2-5-|
pm . .  . .  . .  . .  . . .  . .  . .  . .  . .  . . .

-OR-

e|------------------------------------------------------|
B|------------------------------------------------------|
G|------------------------------------------------------|
D|------------------------------------------------------|
A|------------------------------------------------------|
E|------2-2------------------------2-2------------------|
B|-0-0-------2-2--2-3--3-3-2--0-0-------2-2--2-3--2-2-5-|
pm . .  . .  . .  . .  . . .  . .  . .  . .  . .  . . .

LEAD KEYBOARD PART:
e|----14---------|
B|-12----14-15~~-|
G|---------------|
D|---------------|
A|---------------|
E|---------------|
B|---------------|

That's all I can get without detuning my guitar, and I can't be stuffed.
Comments