Supergroove - You Freak Me Chords & Tabs

 

You Freak Me Chords & Tabs

Supergroove Chords & Tabs

Version: 1 Type: Tab 0 ratings
1 star 2 stars 3 stars 4 stars 5 stars
comments

You Freak Me Tab

You Freak Me - Supergroove

Tabbed by Vermox


Intro and First Verse

e:--------------------------------------------------------------:
B:--------------------------------------------------------------:
G:--------------------------------------------------------------:
D:--------------------------------------------------------------:
A:----------5--6-7-----------x-x-x-x-----------5--6-7-----------:
E:--3--4-5----------3-45\----x-x-x-x---3--4-5----------3-45\----:


e:----------------------------------------:----------------------------/17~--:
B:----------------------------------------:-------------------------(0)------:
G:----------------------------------------:--2p0------------------(0)--------:
D:--------4-56----------------4-56--------:------2p1-2p1p0------(0)----------:
A:--2-34--------2-34----2-34--------2-34--:----------------3-4-0(let ring)---:
E:----------------------------------------:----------------------------------:

Chorus

 (Play 3 times)             (Play once)
e:-----------------------:-----------------------:-----------------------------:
B:--------5^-------------:--------5^-------------:-------5^--2-0---------------:
G:--------5^-------------:--------5^-------------:-------5^------2-1-0---------:
D:--5h7p5-----7-5---55-4-:--5h7p5----7-5---------:--5h7p5--------------3-2-1-0-:
A:----------------7-66-5-:---------------7-65----:-----------------------------:
E:-----------------------:--------------------87-:-----------------------------:

Second Verse

e:--------------------------------------------------------------:
B:--------------------------------------------------------------:
G:--------------------------------------------------------------:
D:--------------------------------------------------------------:
A:----------5--6-7-----------x-x-x-x-----------5--6-7-----------:
E:--3--4-5----------3-45\----x-x-x-x---3--4-5----------3-45\----:

e:----------------------------------------:----------------------------/17~--:
B:----------------------------------------:-------------------------(0)------:
G:----------------------------------------:--2p0------------------(0)--------:
D:--------4-56----------------4-56--------:------2p1-2p1p0------(0)----------:
A:--2-34--------2-34----2-34--------2-34--:----------------3-4-0(let ring)---:
E:----------------------------------------:----------------------------------:

Chorus

 (Play 3 times)             (Play once)
e:-----------------------:-----------------------:---------------:
B:--------5^-------------:--------5^-------------:-------5^------:
G:--------5^-------------:--------5^-------------:-------5^------:
D:--5h7p5-----7-5---55-4-:--5h7p5----7-5---------:--5h7p5--------:
A:----------------7-66-5-:---------------7-65----:---------------:
E:-----------------------:--------------------87-:---------------:

Bridge - This is played with two guitars but I'll try and tab it for one

e:-/99887766554433221100--------------------------------------------:
B:----------------------4433221100----------------------------------:
G:--------------------------------33221100--------------------------:
D:----------------------------------------4433221100----------------:
A:--------------------------------------------------4433221100------:
E:------------------------------------------------------------443322:
[ Tab from: http://www.guitartabs.cc/tabs/s/supergroove/you_freak_me_tab.html ]
                                            (Picked very fast- 9,10,11,12,17)
e:-------------------------/99887766554433/999991010101010111111212121717171717-:
B:-------------------------00---------------------------------------------------:
G:-----------------00112233-----------------------------------------------------:
D:-------0011223344-------------------------------------------------------------:
A:-223344-----------------------------------------------------------------------:
E:------------------------------------------------------------------------------:

You freak me!

Chorus

 (Play 3 times)             (Play once)
e:-----------------------:-----------------------:-----------------------------:
B:--------5^-------------:--------5^-------------:-------5^--2-0---------------:
G:--------5^-------------:--------5^-------------:-------5^------2-1-0---------:
D:--5h7p5-----7-5---55-4-:--5h7p5----7-5---------:--5h7p5--------------3-2-1-0-:
A:----------------7-66-5-:---------------7-65----:-----------------------------:
E:-----------------------:--------------------87-:-----------------------------:


Verse 3

e:-----------------------------------------------------------------:
B:-----------------------------------------------------------------:
G:-----------------------------------------------------------------:
D:-----------------------------------------------------------------:
A:----------5--6-7-----------x-x-x-x-----------5--6-7--------------:
E:--3--4-5----------3-45\----x-x-x-x---3--4-5----------3-45^~\-----:


e:----------------------------------------:----------------------------/17~--:
B:----------------------------------------:-------------------------(0)------:
G:----------------------------------------:--2p0------------------(0)--------:
D:--------4-56----------------4-56--------:------2p1-2p1p0------(0)----------:
A:--2-34--------2-34----2-34--------2-34--:----------------3-4-0(let ring)---:
E:----------------------------------------:----------------------------------:

Instrumental with brass and bass. The bass plays the verse riff so if you just play
that on the guitar then it should work.

You freak me!

Chorus

 (Play 3 times)             (Play once)
e:-----------------------:-----------------------:----------------:
B:--------5^-------------:--------5^-------------:-------5^~------:
G:--------5^-------------:--------5^-------------:-------5^~------:
D:--5h7p5-----7-5---55-4-:--5h7p5----7-5---------:--5h7p5---------:
A:----------------7-66-5-:---------------7-65----:----------------:
E:-----------------------:--------------------87-:----------------:

Lyrics:

If I met you,
I'd probably hate you,
But I never got to,
So I love you.

So I, love, hate you
Staring a hole in me like I'm see-through
You vex me, I'm fumbling
Every time I turn around you're there

You freak me

Hey, you looking at me?
Was I looking at you?
Butterflies in my pants.
Got ants in my heart

I could, talk to you, walk away
Try to pretend I'm uneffected but,
Who started this? It wasn't me,
Speak now or forever hold your peace

You freak me

You freak me!
Yeah, you kinda weaken me, I wanna be free, you just wanna freak me
I want to go at night, you just want a love fight, you wanna slice up
my jimmy like a jackknife
You freak me waiting for the time to arise, to boot and shoot me between the eyes
So I pay today while you slay.

I remember
The lines on your face
Watch them move
And themselves erase

You freak me

You freak me!
Yeah, you kinda weaken me, I wanna be free, you just wanna freak me
I want to go at night, you just want a love fight, you wanna slice up
my jimmy like a jackknife
You freak me waiting for the time to arise, to boot and shoot me between the eyes
So I pay today while you slay.
Comments