Supergrass - Your Love Chords & Tabs

 

Your Love Chords & Tabs

Supergrass Chords & Tabs

Version: 1 Type: Tab 0 ratings
1 star 2 stars 3 stars 4 stars 5 stars
comments

Your Love Tab

   
##################################################################################
# This file is the author's own work and represents their interpretation of the  #
# song. You may only use this file for private study, scholarship, or research.  #
##################################################################################

Supergrass - Your Love


- Orignally tabbed by NEL, 21/9/99
- Additions By Arjan HuisintVeld, 24/11/99 - email frankgovers@hotmail.com
- New version by Bill Robinson, 05/01/00

[ Tab from: http://www.guitartabs.cc/tabs/s/supergrass/your_love_tab.html ]
RIFF1(played throughout verses)
  Am
e------------------------------------------------------
B------------------------------------------------------
G--7^(8)--5--------------------------------------------
D------------5-5^(7)-----5-----------------------------
A----------------------7-------------------------------
E------------------------------------------------------

verse chorus verse chorus bridge



solo
e------------------------------------------------------
B------------------------------------------------------
G-7^(8)--5--4--4\5-4-2---5-4--2-0-2-0------------------
D----------------------------------------5---5--7------
A--------------------------------------7---7-----------
E------------------------------------------------------

e------------------------------------------------------
B----------------------------------------------10------
G-7^(8)--5-4-5-4--2-0----------4^(5)--4--2-0---12^(14)-
D-----------------------5-7----------------------------
A---------------------7--------------------------------
E------------------------------------------------------

repeat chorus
outro:RIFF1 
 
Comments