Supergrass - Time To Go Chords & Tabs

 

Time To Go Chords & Tabs

Supergrass Chords & Tabs

Version: 1 Type: Tab 0 ratings
1 star 2 stars 3 stars 4 stars 5 stars
comments

Time To Go Tab

   
Supergrass - Time To Go


- Tabbed by Mulhern 


INTRO:

[Fmaj7/C  Fmaj7/G Fmaj7/C]...repeated

VERSE 1:

[Fmaj7/C]Thanks to [Fmaj7/G]everyone for
[Fmaj7/C]Everything you've [Fmaj7/G]done but now it's
[Fmaj7/C]Time [Fmaj7/G]to [Fmaj7/C]go

VERSE 2:

[Fmaj7/C]You know it's [Fmaj7/G]hard, we've had some
[Fmaj7/C]Fun but now we've [Fmaj7/G]almost done it's
[Fmaj7/C]Time [Fmaj7/G]to [Fmaj7/C]go

[Fmaj7/C  F#7/C#  G6/D G6/A]

[G6/D]Who could [F#7/C#]ask for [Fmaj7/C]more?

[Fmaj7/G] [Fmaj7/C][Fmaj7/G]

E|-------------------------------------10b--10--8------|
B|------------------------------------------------10---|
G|--5---5---5---5---5---5---------5-7------------------|
D|----7---7---7---7---7---7---5-7----------------------|
A|-----------------------------------------------------|
E|-----------------------------------------------------|

E|-----------------------------------------------------|
B|-----------------------------------------------------|
G|--8-10-----------5---5---5---5---5---5---------5-7---|
D|--------7-9--0-----7---7---7---7---7---7---5-7-------|
A|-----------------------------------------------------|
E|-----------------------------------------------------|

E|--10b-10b--12--8--------|
B|------------------10~~--|
G|------------------------|
D|------------------------|
A|------------------------|
E|------------------------|
[ Tab from: http://www.guitartabs.cc/tabs/s/supergrass/time_to_go_tab.html ]
[Fmaj7/C  F#7/C#  G6/D G6/A]

[G6/D]Who could [F#7/C#]ask for [Fmaj7/C]more?

[Fmaj7/G] [Fmaj7/C][Fmaj7/G]

VERSE 3:

[Fmaj7/C]Thanks to [Fmaj7/G]everyone for
[Fmaj7/C]Everything you've [Fmaj7/G]done but now it's
[Fmaj7/C]Time [Fmaj7/G]to [Fmaj7/C]go

VERSE 4:

[Fmaj7/C]You know it's [Fmaj7/G]hard, we've had some
[Fmaj7/C]Fun but now we've [Fmaj7/G]almost done it's
[Fmaj7/C]Time to [Fmaj7/G]go

[Fmaj7/C  F#7/C#  G6/D G6/A]

[G6/D]Who could [F#7/C#]ask for [Fmaj7/C]more?

[Fmaj7/G] [Fmaj7/C][Fmaj7/G]...repeated

Chords:

Fmaj7/C   x33210
Fmaj7/G   3x3210
F#7/C#    x44320
G6/D      x55430
G6/A      5x5430

Corrections/Comments Welcome :)

Tabbed By:

--
   __________________   _____________________________________________
  /                  \ /                                             \
 |   Andrew Mulhern   |         I am Today, You are Tomorrow          |
 |   **************   |  I Light the Way, While You Drown the Sorrow  |
  \__________________/ \_____________________________________________/
                                  \ mulhern@zetnet.co.uk /
       /~~\_/~>         ,,,        **********************
      { [====|||||||||||:::}
       \__/~\_>         '''
    


Comments