Supergrass - St Petersburg Chords & Tabs

 

St Petersburg Chords & Tabs

Supergrass Chords & Tabs

Version: 1 Type: Chords 0 ratings
1 star 2 stars 3 stars 4 stars 5 stars
comments

St Petersburg Chords

   
Supergrass - St. Petersburg
From their yet to be released album 'Road to Rouen'. 
Most of the lyrics are probably wrong, but y'know...

F#min
In a foreign town with a morning sandman

Dmaj
I can find my way around

F#min
Soon be here at the borderline, I guess

Dmaj
Armageddon coming down

Amaj
And here lies a greedy state again

Dmaj                     Bmaj
It's time to make a move on

       F#min              Emaj
Cos in three days I'll be out of here

                       Dmaj
And it's not a day too soon

F#min
Firelight, the light of love, burns

Dmaj
Turns to ashes in your hand

F#min
Saw the bed by the morning light I guess

Dmaj
Now the waking understand

Amaj
Set sail for St. Petersburg

Dmaj             Bmaj
Making use of my time

F#min                     Emaj
Cos in three days I'll be out of here

                       Dmaj
And it's not a day too soon

Solo bit
[ Tab from: http://www.guitartabs.cc/tabs/s/supergrass/st_petersburg_crd.html ]
e--------5-----------5----------------5-----------5---------]
B----7-7---7-----7-7---7-6-5------7-7---7-----7-7---7-5-2-0-]
G-----------------------------------------------------------]
D-----------------------------------------------------------]
A-----------------------------------------------------------]
E-----------------------------------------------------------]

e----------0-------------------5-4--------------------------]
B----2-2-3----------0-4------7--------0-2-------------------]
G------------2-2--------------------------------------------]
D-----------------------------------------4-----------------]
A-----------------------------------------------------------]
E-----------------------------------------------------------]

F#min
Head out to a better life again

Dmaj
Get a job, settle down

F#min
Fall in love, of a full on feeling

Dmaj
I can stand there here and now

Amaj
Leave town for pity's sake you know

Dmaj                     Bmaj
It's time to make a move on

F#min                     Emaj
Cos in three days I'll be out of here

                       Dmaj
And it's not a day too soon

      F#min              Emaj
Yeah, three days I'll be out of here

                       Dmaj
And it's not a day too soon


This is all my own work etc. etc.                 Chris Jones
Comments