Supergrass - Sofa - Solo Chords & Tabs

 

Sofa - Solo Chords & Tabs

Supergrass Chords & Tabs

Version: 1 Type: Tab 0 ratings
1 star 2 stars 3 stars 4 stars 5 stars
comments

Sofa - Solo Tab

   
##################################################################################
# This file is the author's own work and represents their interpretation of the  #
# song. You may only use this file for private study, scholarship, or research.  #
##################################################################################

Supergrass - Sofa (Of My Lethargy)


- Transcribed by Bill Robinson

 
verse1

bridge:   D  Db  F#m  G  F
 
verse2

bridge:   D  Db  F#m  G  F
 
chorus
[ Tab from: http://www.guitartabs.cc/tabs/s/supergrass/sofa_solo_tab.html ]
bridge:   D  Db  F#m  G  F
 
 
solo:
e---------14--------14---------14--14---14\12----------------b12--12--10--------------------------------------|
B-------------------------------------------------------10--b10---------------------b10--10----b5--b5--b5-----|
G \14---------14--------14--------14---14\12------------------------------------------------------------------|
D-------------------------------------------------------------------------------------------------------------|
A-------------------------------------------------------------------------------------------------------------|
E-------------------------------------------------------------------------------------------------------------|
 
e-------------------|
B--5---------3------|
G-------4-----------|
D-------------------|
A-------------------|
E-------------------|
           
bridge:    D  Db  F#m  G  F
repeat chorus
repeat bridge
Comments