Supergrass - Sitting Up Straight Chords & Tabs

 

Sitting Up Straight Chords & Tabs

Supergrass Chords & Tabs

Version: 1 Type: Tab 0 ratings
1 star 2 stars 3 stars 4 stars 5 stars
comments

Sitting Up Straight Tab

   
##################################################################################
# This file is the author's own work and represents their interpretation of the  #
# song. You may only use this file for private study, scholarship, or research.  #
##################################################################################

Supergrass - Sitting Up Straight


- Tabbed by Andrew Mulhern  < mulhern@zetnet.co.uk >

   
INTRO:  Piano until  0:20

      G             G/F
E|---3-3---------------------|
B|---3-3-----------3-3-3---|
G|---0-0--x-x-x--0-0-0---|   Repeated 
D|---0-0--x-x-x--0-0-0---|
A|---x-x--x-x-x--x-x-x---|
E|---3-3-----------1-1-1---|
 

VERSE 1

CHORUS

VERSE 2:

      D              C
E|---2-2---------------------|
B|---3-3--x-x-x--1-1-1---|
G|---2-2--x-x-x--0-0-0---|  Repeated!
D|---0-0--x-x-x--2-2-2---|
A|-------------------3-3-3---|
E|-----------------------------|


CHORUS again

SOLO:

E|---10-10-10-8-10------------------|---10-10-10-8-10---------------|
B|---10-10-10-8-10------------------|---10-10-10-8-10---------------|
G|-------------------------10-9-8-7-7-|------------------------10-9-8-7--|
D|-----------------------------------------|--------------------------------------|
A|-----------------------------------------|--------------------------------------|
E|-----------------------------------------|--------------------------------------|
[ Tab from: http://www.guitartabs.cc/tabs/s/supergrass/sitting_up_straight_tab.html ]
E|-------------------------------------------|-----------------------------------------------------|
B|-------------------8-8----------8b--6--|---------8-8--10b-10b-10b-10b-12b-12b-|
G|---7--7--7-7-7--------7--7-----------|---7-7---------------------------------------------|
D|------------------------------------------|-----------------------------------------------------|
A|------------------------------------------|-----------------------------------------------------|
E|------------------------------------------|-----------------------------------------------------|
                                                                      
                                     
E|---10b-10b-10b-10b-10b-10b-10b-10b--etc--|
B|------------------------------------------------------------|
G|------------------------------------------------------------|
D|------------------------------------------------------------|
A|------------------------------------------------------------|
E|------------------------------------------------------------|
                                               Sit up straight
ENDING


Note:  G = 3x0033
             Em7 = 022033
             A7sus4 = x02033
             Eb = x6888x
             F/C = x33211

--
   __________________   _____________________________________________
  /                  \ /                                             \
 |   Andrew Mulhern   |         I am Today, You are Tomorrow          |
 |   **************   |  I Light the Way, While You Drown the Sorrow  |
  \__________________/ \_____________________________________________/
                                  \ mulhern@zetnet.co.uk /            
                                       **********************
    

Comments