Supergrass - Richard Iii Chords & Tabs

 

Richard Iii Chords & Tabs

Supergrass Chords & Tabs

Version: 5 Type: Tab 0 ratings
1 star 2 stars 3 stars 4 stars 5 stars
comments

Richard Iii Tab

   
-------------------------------------------------------------------------------
			  Richard III - Supergrass


Tabbed By:Nick Read

         So far i havent seen a correct version of this 
 totally awesome song. So, here goes. (I'm a tab virgin so bear with 
 me!)

Listen to song for correct strumming patterns.

Intro:

         A                        D#
e|-------5--5--5--5----------------6--6--6--6--------------------
B|-------5--5--5--5----------------8--8--8--8--------------------
G|-------6--6--6--6----------------8--8--8--8-------------------- x 3
D|-------7--7--7--7----------------8--8--8--8--------------------
A|-------7--7--7--7----------------6--6--6--6--------------------
E|-------5--5--5--5----------------6--6--6--6--------------------

(run-up) C        D         D#         F
e|--------------------------------------------------------------------
B|--------------------------------------------------------------------
G|----5---5-----7---7-----8---8-----10---10---------------------------
D|--------------------------------------------------------------------
A|----3---3-----5---5-----6---6------8----8---------------------------
E|--------------------------------------------------------------------

       C      A             D#
e|-----8--/---5--5--5--5----6--6--6--6--6------------------------
B|-----8--/---5--5--5--5----8--8--8--8--8------------------------
G|-----9--/---6--6--6--6----8--8--8--8--8------------------------ x 4
D|-----10-/---7--7--7--7----8--8--8--8--8------------------------
A|-----10-/---7--7--7--7----6--6--6--6--6------------------------
E|-----8--/---5--5--5--5----6--6--6--6--6------------------------


Verse:
       C      A             D#
e|-----8--/---5--5--5--5----6--6--6--6--6------------------------
B|-----8--/---5--5--5--5----8--8--8--8--8------------------------
G|-----9--/---6--6--6--6----8--8--8--8--8------------------------ x 4
D|-----10-/---7--7--7--7----8--8--8--8--8------------------------
A|-----10-/---7--7--7--7----6--6--6--6--6------------------------
E|-----8--/---5--5--5--5----6--6--6--6--6------------------------


Chorus:
          C                   G#                   G
e|--------------------------------------------------------------------
B|--------------------------------------------------------------------
G|----5-5-5-5-5-5-5-5-------------------------------------------------
D|----5-5-5-5-5-5-5-5------6-6-6-6-6-6-6-6-------5-5-5-5-5-5-5-5------
A|----3-3-3-3-3-3-3-3------6-6-6-6-6-6-6-6-------5-5-5-5-5-5-5-5------
E|-------------------------4-4-4-4-4-4-4-4-------3-3-3-3-3-3-3-3------

(run-up) C        D         D#         F
e|--------------------------------------------------------------------
B|--------------------------------------------------------------------
G|----5---5-----7---7-----8---8-----10---10---------------------------
D|--------------------------------------------------------------------
A|----3---3-----5---5-----6---6------8----8---------------------------
E|--------------------------------------------------------------------

       C      A             D#
e|-----8--/---5--5--5--5----6--6--6--6--6------------------------
B|-----8--/---5--5--5--5----8--8--8--8--8------------------------
G|-----9--/---6--6--6--6----8--8--8--8--8------------------------ x 2
D|-----10-/---7--7--7--7----8--8--8--8--8------------------------
A|-----10-/---7--7--7--7----6--6--6--6--6------------------------
E|-----8--/---5--5--5--5----6--6--6--6--6------------------------



 Verse
 C A   D#     x 4 
[ Tab from: http://www.guitartabs.cc/tabs/s/supergrass/richard_iii_tab_ver_5.html ]
 Chorus
 C   G#  G
 (run-up)

 Solo:
e|----------------------------------------------------------------
B|-------/13-------------------------------/13--------------------
G|-----------12--14---------------------------12--14--------------
D|------------------14--12---------------------------14-----------
A|---------------------------15-----------------------------------
E|----------------------------------------------------------------

e|----------------------------------------------------------------
B|-------/13------------------------------------------------------
G|-----------12--14-----------------------------------------------
D|------------------14--12----------------------------------------
A|---------------------------15-----------------------------------
E|----------------------------------------------------------------

   tryin a get at ya'    tryin a get at ya'
e|-------8b--5-5-5-5-----8b--5-5-5-5---------------------------------
B|--------------------------------------------/13--------------------
G|------------------------------------------------12--14-------------
D|-------------------------------------------------------14--12------
A|----------------------------------------------------------------15-
E|-------------------------------------------------------------------

e|----------------------------------------------------------------
B|---/13-----------------/13---------13b--------------------------
G|-------12--14--------------12--14-------------------------------
D|--------------14------------------------------------------------
A|----------------------------------------------------------------
E|----------------------------------------------------------------

    tryin a get at ya'    
e|----8b--5-5-5-5--------
B|-----------------------
G|-----------------------  x 4
D|-----------------------
A|-----------------------
E|-----------------------

 Interlude:
e|-----------------       
B|-----------------        I think this little fill is repeated 16
G|---8-7----------- x 16   times. I may be wrong but listen to the 
D|-----------------        and work it out for yourself, it isnt hard.
A|-----------------       
E|-----------------      

 I'm not entirely sure exactly what Gaz plays here but i think 
 this sounds really good.
e|--------------------------------------------------------
B|-------5-5-5-5-/-11--11-11-11-11------------------------
G|-------6-6-6-6-/-12--12-12-12-12------------------------
D|-------7-7-7-7-/-13--13-13-13-13------------------------
A|--------------------------------------------------------
E|--------------------------------------------------------

  Verse chords
   C A   D#

   Then he plays another little solo with a Wah effect. Im not sure 
   what it is he plays but i think he plays it somewhere around frets
   6 and 8.

  The solo lasts the length of the verse chords: C A  D# x3
  Then it goes back into the chorus

  Chorus     x2
  C  G#  G           
  (run-up)   

  This is how the final run-up goes to end the song:
  
e|--------------------------------------------------
B|--------------------------------------------------
G|--5---5-----7---7-----8---8-----10---10-----11----
D|--------------------------------------------------
A|--3---3-----5---5-----6---6-----8----8------9-----
E|--------------------------------------------------

  Well, thats it. The entire song (except for the Wah solo).
  
  Any questions, comments, corrections blah, blah, blah e-mail me at
                        nickread73@hotmail.com.
 
  !!!!!!!!!!!!!!!!!!!!!!!!!!!!!ENJOY!!!!!!!!!!!!!!!!!!!!!!!!!!!!!!


======================================================================
Comments