Supergrass - Richard Iii Chords & Tabs

 

Richard Iii Chords & Tabs

Supergrass Chords & Tabs

Version: 3 Type: Tab 0 ratings
1 star 2 stars 3 stars 4 stars 5 stars
comments

Richard Iii Tab

#----------------------------------PLEASE NOTE---------------------------------#
#This file is the author's own work and represents their interpretation of the #
#song. You may only use this file for private study, scholarship, or research. #
#------------------------------------------------------------------------------#
Email = andrew.walker@virgin.net
Song = Richard III
Artist = Supergrass
Album = Init for the money
contents = This is the main riff for the excellent Richard III by Supergrass
This is one of my favourite songs at the moment, the video is even better.
These are the only parts I have worked out so far but, I'm working on the 
rest.

[ Tab from: http://www.guitartabs.cc/tabs/s/supergrass/richard_iii_tab_ver_3.html ]
e|--2-2-2-2-2-2----------------------------------------------|
B|--2-2-2-2-2-2-----then---------------then------------------|
G|--2-2-2-2-2-2----------------------------------------------|
D|--2-2-2-2-2-2------------8-8-8-8-8-8----8/9/10/11----------|
A|--2-2-2-2-2-2------------8-8-8-8-8-6----8/9/10/11----------|
E|-------------------------6-6-6-6-6-6----6/7/8-/9-----------|

Later on: 

e|--------------------------|
B|--------------------------|
G|--------------------------|
D|---4h6-4h6-4h6-4h6-4h6-4h6|
A|--------------------------|
E|--------------------------|



I would be very grateful is someone else could finish this and post it as I
am not sure thatm this is right.




andrew.walker@virgin.net
Duncan Walker(Dat Munksta)

Requests:
Beetlebum-Blur

Thanks to:
Thomas Jones and Robert Evans.
Comments