Supergrass - Richard Iii Chords & Tabs

 

Richard Iii Chords & Tabs

Supergrass Chords & Tabs

Version: 3 Type: Bass Tab 0 ratings
1 star 2 stars 3 stars 4 stars 5 stars
comments

Richard Iii Bass Tab

Richard III

(Props to whoever wrote the first tab, I used it as a template and corrected in places)


Intro:
G|---------------------|---|--------------------|
D|---------------------|---|--------------------|
A|-0-0-0-00-00-0-2-3-2-|-x3|--3-3--1-1----------|
E|---------------------|---|-----------5-5--4-4-|

Verse:
G|-----------|-----------------|
D|-----------|-----------------|
A|-3---------|-3-6-6-6-6-5-3---|
E|---5-5-5-5-|---------------5-|

G|-----------|-----------------|
D|-----------|-----------------|
A|-3---------|-3-6-6-6-6-------|  
E|---5-5-5-5-|-----------0-3-5-|
                               
Chorus:
G|-----------|----------|--------------|-----------------|
D|-----------|----------|--------------|-----------------|
A|-3333333233|----------|------------3-|-3-3--1-1--------|
E|-----------|4444444444|-033333333-5-5|----------5-5-4-4|
[ Tab from: http://www.guitartabs.cc/tabs/s/supergrass/richard_iii_btab_ver_3.html ]
Interlude:                                 
G|-------------------|----------------|--|----------(x2)|
D|-13-12-10----------|-13-12-10-------|--|--------------|
A|----------10-10-10-|----------8-8-8-|x3|-15--12-12-12-|
E|-------------------|----------------|--|--------------|
                                            *slight bend  
G|-------------------|----------------|--|
D|-13-12-10----------|-13-12-10-------|--|
A|----------10-10-10-|----------8-8-8-|x2|
E|-------------------|----------------|--|

G|-------------------|------------------|----------(x4)|
D|-13-12-10----------|-13-12-10---------|--------------|
A|----------10-10-10-|----------11-11-11|-15--12-12-12-|
E|-------------------|------------------|--------------|

Pre-solo:
G|---------|------|
D|---------|------|
A|---------|------|
E|-8-----6-|--5\\-|

Final Chorus:
Play chorus once then:-                                        (fade)
G|----------|--------------|--------------|------------------|-------|
D|----------|-----64-------|--------------|------------------|-------|
A|3333333233|--456--654----|------------3-|3-3-5-5-6-6-8-8-6-|-------|
E|----------|44--------54-0|-333333333-5-5|------------------|-8---6-|
Comments