Supergrass - Richard Iii Chords & Tabs

 

Richard Iii Chords & Tabs

Supergrass Chords & Tabs

Version: 2 Type: Bass Tab 0 ratings
1 star 2 stars 3 stars 4 stars 5 stars
comments

Richard Iii Bass Tab

Richard III
W/pick
Intro:
G|---------------------|---|--------------------|
D|---------------------|---|--------------------|
A|-0-0-0-00-00-0-6-6-6-|-x2|--3-3--1-1----------|
E|---------------------|---|-----------4-4--1-1-|
Verse
G|-------------|-----------------|
D|-10-h-7-7-7-7|-----------------|
A|-------------|-0-6-6-6-8-6-----|
E|-------------|-------------8-6-|
[ Tab from: http://www.guitartabs.cc/tabs/s/supergrass/richard_iii_btab_ver_2.html ]
G|-------------|-------------------|
D|-10-h-7-7-7-7|-------------------|
A|-------------|-0-6-6-6-8-6-5-----|
E|-------------|---------------(7)-|
                               *miss last time
Chorus:
G|-----------|----------|-------------|-----------------|
D|-----------|----------|-------------|-----------------|
A|-3333333233|----------|-------------|-3-3--1-1--------|
E|-----------|4444444444|-033333333-56|----------4-4-1-1|
Interlude:                                 
G|-------------------|----------------|--|------------x2|
D|/13-12-10----------|/13-12-10-------|--|--------------|
A|----------10-10-10-|----------8-8-8-|x2|-15--12-12-12-|
E|-------------------|----------------|--|--------------|
                                            *slight bend  
G|-------------------|----------------|--|
D|/13-12-10----------|/13-12-10-------|--|
A|----------10-10-10-|----------8-8-8-|x2|
E|-------------------|----------------|--|

G|-------------------|------------------|------------x2|
D|/13-12-10----------|/13-12-10---------|--------------|
A|----------10-10-10-|----------11-11-11|-15--12-12-12-|
E|-------------------|------------------|--------------|
Pre-solo:
G|---------|------|
D|---------|------|
A|---------|------|
E|-8-----6-|--5\\-|
Final Chorus:
Play chorus once then:-
G|----------|------------|-------------|---------------|
D|----------|---------46-|-------------|---0-0-1-1-33-4|
A|3333333233|-------46--6|-------------|3-3------------|
E|----------|4444446-----|-333333333-56|---------------|

End with single C and Bb til fade.
Comments