Supergrass - Pumping On Your Stereo Chords & Tabs

 

Pumping On Your Stereo Chords & Tabs

Supergrass Chords & Tabs

Version: 1 Type: Bass Tab 0 ratings
1 star 2 stars 3 stars 4 stars 5 stars
comments

Pumping On Your Stereo Bass Tab

   
----------------------------------------------------------------------------
			 PUMPING ON YOUR STEREO - Supergrass
----------------------------------------------------------------------------

Tabbed By : Stephen Healy
e-mail: steeeeeve13@hotmail.com

Tuning:Standad EADG


Chorus ("Can you hear us...)
G|-------------------------------------------------------------------------|
D|-------------------------------------------------------------------------|
A|--5----5-6-7-7-----------------------------------------------------------|
E|-----7---------4-4-5-5-7-7-----------------------------------------------|

[ Tab from: http://www.guitartabs.cc/tabs/s/supergrass/pumping_on_your_stereo_btab.html ]
Verse e.g. "life is a cigarrete..."
G|-------------------------------------------------------------------------|
D|-------------------------------------------------------------------------|
A|-5-5-5-5-5-5-5-5-7-7-7-7-7-7-7-7-5-5-5-5-5-5-5-5-7-7-7-7-7-7-7-7---------|
E|-------------------------------------------------------------------------|

Bridge ("the wider the eyes...")
G|-------------------------------------------------------------------------|
D|-------------------------------------------------------------------------|
A|-8-8-8-8-8-8-8-8-8-8-8-8-8-8-8-8-----------------------------------------|
E|---------------------------------5-5-5-5-5-5-5-5-5-5-5-5-5-5-5-5---------|

G|-------------------------------------------------------------------------|
D|-------------------------------------------------------------------------|
A|-3-3-3-3-3-3-3-3-3-3-3-3-3-3-3-3-----------------------------------------|
E|---------------------------------3-3-3-3-3-3-3-3-3-3-3-3-3-3-3-3---------|


| /  slide up
| \  slide down
| h  hammer-on
| p  pull-off
| ~  vibrato
| +  harmonic
| x  Mute note
============================================================================
Comments