Supergrass - Moving Chords & Tabs

 

Moving Chords & Tabs

Supergrass Chords & Tabs

Version: 2 Type: Tab 0 ratings
1 star 2 stars 3 stars 4 stars 5 stars
comments

Moving Tab

Intro (just the chords)

-7---7---8---0---2---2-         -7---7---8---0---2---2-
-7---7---8---1---2---4-         -7---7---8---0---2---4-
-5---0---0---0---2---2- or alt. -5---0---0---5---2---2-
-5---x---0---2---4---4-         -5---x---0---7---4---4-
-5---7---x---0---2---2-         -5---7---x---0---2---2-
-----0---8-------------         -----0---8-------------

And
[ Tab from: http://www.guitartabs.cc/tabs/s/supergrass/moving_tab_ver_2.html ]
-(7)-(5)-(7)---------------                    -2---2-
-(7)-(5)--8--8-7-------8-7-                    -2---4-
--7---6---9--9-9---7h9----- several times then -2---2-
--9---7---9--------9-------                    -4---4-
--9---7---7----------------                    -2---2-
--7---5---0----------------                    -------

That's what the fingers of Gaz showed me, i think...
Corrections : plebiscite_tungsten_queen@hotmail.com
Comments