Supergrass - Mama And Papa Chords & Tabs

 

Mama And Papa Chords & Tabs

Supergrass Chords & Tabs

Version: 1 Type: Tab 0 ratings
1 star 2 stars 3 stars 4 stars 5 stars
comments

Mama And Papa Tab

   
Supergrass - Mama & Papa

- Tabbed by Sam "Miss my money and I miss my teddy,
  won't you please bring them back home?" Marsh

[samuelmarsh@hotmail.com - http://doghousepages.lycos.com/music/marsh]

(as an update to David Alphonsine's version.)


Follow the notes, sing the CORRECT lyrics.


Intro:

     G                                     G

E||--7---------7-------7---------7-----||--7---------7-------7---------7-----|
B||------8-------8---------8-------8---||------8-------8---------8-------8---|
G||--------7-------7---------7-------7-||--------7-------7---------7-------7-|
D||--0-------0---------0-------0-------||--0-------0---------0-------0-------|
A||------------------------------------||------------------------------------|
E||------------------------------------||------------------------------------|


Verse:

     G                 Am7                 Ebsus6            C6

E||--7---------7-------8---------8-----||--8---------8-------5---------5-----|
B||------8-------8---------8-------8---||------8-------8---------5-------5---|
G||--------7-------7---------0-------0-||--------0-------0---------0-------0-|
D||--0-------0-------------------------||------------------------------------|
A||--------------------0---------0-----||--6-------6---------3-------3-------|
E||------------------------------------||------------------------------------|

   Walk in the park, and it's getting dark, and I don't wanna be alone,

     Em                D6add11             D7                D7sus6
[ Tab from: http://www.guitartabs.cc/tabs/s/supergrass/mama_and_papa_tab.html ]
E||--7---------7---------------7-------||--5---------5-------7---------7-----|
B||------8-------8-----7-----7-----7---||------7-------7---------7-------7---|
G||--------0-------0-------0-----------||--------5-------5---------5-------5-|
D||--------------------0---------------||--0-------0---------0-------0-------|
A||--7-------7-------------------------||------------------------------------|
E||------------------------------------||------------------------------------|

Miss my money and I miss my teddy won't you please bring them back home?

(Repeat)


Chorus:

     Dm                Bm                  Bb                Eb

E||----------0-----------------2-------||------------------------------------|
B||--6-----------6-----3---------------||--3---------3---------------8-------|
G||------7-----------------4-------4---||------3-------3-----8---------8-----|
D||--0-----0---------------------------||--------3-------3-------8-------8---|
A||--------------------2-----2---------||--1-------1---------6-----6-------6-|
E||------------------------------------||------------------------------------|

   Drift in time as the mountains rise from the floor of the valley below,

     Gm                A                   D

E||----------3-------------------------||--------------------2---------------|
B||------------3-------2---------2-----||--3-------3-------------------------|
G||------3-------3---------2-------2---||------2-----2---2---2---------------|
D||--5-----5-------5---------2-------2-||--0-----4-----4---------------------|
A||--------------------0-------0-------||------------------------------------|
E||------------------------------------||------------------------------------|

      Seasons change as the rivers meet the sea.

Comments