Supergrass - Lenny Chords & Tabs

 

Lenny Chords & Tabs

Supergrass Chords & Tabs

Version: 1 Type: Tab 0 ratings
1 star 2 stars 3 stars 4 stars 5 stars
comments

Lenny Tab

   
Supergrass - Lenny


- Tabbed by Mulhern 


INTRO:

E|-----------------------------------------
B|-----------------------------------------
G|-----------------------------------------
D|-----------------------------------------
A|-----------------------------------------
E|---0--0--0--0--0--0--0--0--0--0--0--0----etc

VERSE:

Riff
E|----------------------------------------|
B|----------------------------------------|
G|----------------------------------------|
D|----------------------------------------|
A|-------------------------5-----5--6--7--|
E|---0--0--0--0---5--6--7-----7-----------|

E|----------------------------------------|
B|----------------------------------------|
G|----------------------------------------|
D|-------------------------4-----4--5--6--|
A|----------------4--5--6-----6-----------|
E|---0--0--0--0---------------------------|

This is played with Vocals

Been around and around but I got nowhere to go now
But the funny thing is that when I'm gone i'll kill you hoo!

CHORUS:

[B]When I tell you
I don't want you hoo [E]hoo

Repeat VERSE and CHORUS again :)

SOLO:

[Fsus4]Ooooo [F]Oooooooo [Fsus4]Ooooo [F]Ooooooooooooo

E|------------------|
B|------------------|
G|------------------|
D|--9-9-7-----------| 4 times
A|--------9-8-7-----|
E|---------------7--|

[Fsus4]Ooooo [F]Oooooooo [Fsus4]Ooooo [F]Ooooooooooooo
[ Tab from: http://www.guitartabs.cc/tabs/s/supergrass/lenny_tab.html ]
E|------------------|
B|------------------|
G|------------------|
D|--9-9-7-----------| 4 times
A|--------9-8-7-----|
E|---------------7--|

[Fsus4]Ooooo [F]Oooooooo [Fsus4]Ooooo [F]Ooooooooooooo

E|-------------------------------------|
B|-------------------------------------|
G|--------------------7-7--------------|
D|--9-9-7-----7-8-9--------9-7---------|  4 times
B|---------9-------------------9-8-7---|
E|-------------------------------------|

E|------------------------|
B|------------------------|
G|------------------------|
D|------------------------|  3 times
A|------------7-7-7-7-----|
E|--0-0-0-0-0---------0---|

VERSE again

ENDING:

[B]When I tell you
[A]When I tell you oooh
[B]YEAH! When I tell you
[A]I don't want you [E]hoo hoo

NOTE:
Fsus4  13-15-15-15-13-13
F      13-15-15-14-13-13

Corrections/Comments Welcome :)

Tabbed by:

--
   __________________   _____________________________________________
  /                  \ /                                             \
 |   Andrew Mulhern   |         I am Today, You are Tomorrow          |
 |   **************   |  I Light the Way, While You Drown the Sorrow  |
  \__________________/ \_____________________________________________/
                                  \ mulhern@zetnet.co.uk /
       /~~\_/~>         ,,,        **********************
      { [====|||||||||||:::}
       \__/~\_>         '''
    


Comments