Supergrass - Late In The Day Chords & Tabs

 

Late In The Day Chords & Tabs

Supergrass Chords & Tabs

Version: 1 Type: Tab 0 ratings
1 star 2 stars 3 stars 4 stars 5 stars
comments

Late In The Day Tab

   
##################################################################################
# This file is the author's own work and represents their interpretation of the  #
# song. You may only use this file for private study, scholarship, or research.  #
##################################################################################

Supergrass - Late in the Day

-Tabbed by Sam Marsh

Below is one more update of 'Late in the Day'.  I've amended 
Dutch Ronnydee's version, which contained a couple of small,
but important errors. The solos now have the chords as well 
for those budding rhythm guitarists, and the solo itself has
been touched up.

[Quick note: for added authenticity, try to slide up from the
Am to the A7sus4,6 chord in the verse, something like
  
e-0--0--0-------0--
B-1--1--1-------3--
 G-2--2--2--0----0--
D-2--2-----2/4--4--
A-0--0----------0--
E------------------  etc]

Have fun!

Dmaj7  xx0222Esus4 022200
Fmaj7  133210G7 353433
Am        x02210B7 x21202
A7sus4,6  x04030Emadd9   024000
F  133211F# 244322
Bb  x1333xA7 x02223
Fmaj7sus9 133010


intro:  Dmaj  Fmaj7  Am  A7sus4,6  F  Bb  F  Bb  F  D  A

Verse I II

chorus: A                         Fmaj7sus9
        All the time I thought of you
        Esus4
        In an ordinary way
        G7
        You slip back down a heart away
        A                    Fmaj7sus9
        All I really have to say
        Esus4
        As people pass along the way
        B7                        C  A
        Thoughts of me and you again

Verse III IV

repeat chorus

solo1(keyboard arranged for guitar)

  Em       Emadd9   C     F#  D   A

e-----7--------7---------------------------------------
B-5--------3--------1-----7---8---10-------------------
G------------------------------------------------------
D------------------------------------------------------
A------------------------------------------------------
E------------------------------------------------------
[ Tab from: http://www.guitartabs.cc/tabs/s/supergrass/late_in_the_day_tab.html ]
     Em       Emadd9   C    F#   D   A    A7
 
e-7------7---------------------------------------------
B----5--------7---8----5----7----8---10----------------
G------------------------------------------------------
D------------------------------------------------------
A------------------------------------------------------
E------------------------------------------------------

solo2(guitar)

  Dmaj7          Fmaj7               Am  A7sus4,6       F
e-2------------------------------------------------------
B-2---------7--------6----------------------8------------
G-2------/6---6--6\5------------5--------/9---9--9\7--5--
D-0-------------------------5h7---5--7------------------7
A--------------------------------------------------------
E--------------------------------------------------------

  Bb        F       Bb        F     D   A  

e--------------------------------------------------------
B-10--------5-------10--------5----5----5----5------5----
G-12^(14)---7^(9)---12^(14)---7^(9)^7---6------6h7--6----
D--------------------------------------------------------
A--------------------------------------------------------
E--------------------------------------------------------

  Dmaj7              Fmaj7        Am  A7sus4,6

e--------------------------------------------------------
B-------10-----------------------------------------------
G-9^(11)--(11)^9-------------5-------5--5--4h5p4--2------
D-----------------7h10---5h7---5--7----------------------
A--------------------------------------------------------
E--------------------------------------------------------

  Bb       F      Bb       F    D   A                A7

e--------------------------------------------------------------------------
B-10-------5------10-------5----5---5--5-------5--6----8----8h10--8--10p8--
G-12^(14)--7^(9)--12^(14)--7^(9)^7--6-----6h7--6----/9---9--9-----9-------9
D--------------------------------------------------------------------------
A--------------------------------------------------------------------------
E--------------------------------------------------------------------------



Comments