Supergrass - Its Not Me Chords & Tabs

 

Its Not Me Chords & Tabs

Supergrass Chords & Tabs

Version: 2 Type: Tab 0 ratings
1 star 2 stars 3 stars 4 stars 5 stars
comments

Its Not Me Tab

   
#----------------------------------PLEASE NOTE---------------------------------#
#This file is the author's own work and represents their interpretation of the #
#song. You may only use this file for private study, scholarship, or research. #
#------------------------------------------------------------------------------#

Date: Wed, 26 Nov 1997 11:56:56 +0000
From: "\"Mr Frederic F. MAQUET\" <\"Mr Frederic F. MAQUET\""
     
Subject: Tab: "It's Not Me" by Supergrass

It's not me - by Supergrass
			From the Album In it for the Money.
Tabbed by Frederic Maquet

This version is without a capo...it might be easier with one
but I think it sounds better this way.  Gaz plays this on a twelve
string accoustic, while the rest of the band do some weird "shwow"
noises.
I think this version is slightly more accurate than the previous
posted version...what do you think?  E-mail me at:  f.maquet@ic.ac.uk

Check out more Supergrass tabs at my guitar page:
http://www.geocities.com/SunsetStrip/3224/guitar.html

   Intro: (play slowly)
   ------
    F#m7     F#m6     Dmaj7       F#7sus4
e:--2-----2--2----2---2-------2---2--2-|------------|
B:--2-----2--2----2---2-------2---2--2-|------------|
G:--2-----2--2----2---2-------2---4--4-|--Start-----|
D:--2-----2--1----1---0-------0---2--2-|--strumming-|
A:--4-----4--0----0---0-------0---4--4-|---Fast-----|
E:--2-----2--x----x---x-------x---2--2-|------------|

Verse 1:
--------
F#m7	     F#m6	     Dmaj7	      F#7sus4
  Over their heads, I find a place to crawl away.
F#m7	  F#m6		    Dmaj7	       F#7sus4
  So many times, I hear the things they use to say.
[ Tab from: http://www.guitartabs.cc/tabs/s/supergrass/its_not_me_tab_ver_2.html ]
G#	C#11  (with added "schwowwom" effect)
(466544) (444444)
Verse 2: (same chords as verse 1)
--------
Into the night, the conversation fades away.
Losing the drift, of all the things I have to say.

G#     C#11

Chorus:
-------

F#               A6
It's not me, no, no, not me.
    W (x0124x)        Dsus2 (x00250)    (W->weird chord!)
But I don't know what is.

  F#		  A6
I try and find my piece of mind.
    W		     Dsus2
But I know what I'll miss.

Bridge:
-------
         G#                            C#11
Now i'ts gone. Now it's gone. Now it's gone.

F#          A6      G#               C#11
As everyone listens,   my head turns away.
F#              A6      G#                 C#11
I know what I'm missing.    But nothing is saaaaid

Chorus (x2)
-----------
    W		     F#7sus4
But I know what I'll miss

Quick succession:
/    /  / /  /   /  /  /  /  /(hold)
B       B F# B   B  F# B  F# F#....

  Chords:
  F#m7 F#m6 Dmaj7  F#7sus4   G#    C#11   F#   A6 or     W? Dsus2
e:-2---2-----2-----2---------4------4-----2-----2---2----x-----0--|
B:-2---2-----2-----2---------4------4-----2-----2---2----4-----5--|
G:-2---2-----2-----4---------5------4-----3-----2---2----2-----2--|
D:-2---1-----0-----2---------6------4-----4-----4---2----1-----0--|
A:-4---0-----0-----4---------6------4-----4-----0---0----0-----0--|
E:-2---x-----x-----2---------4------4-----2-----0---0----x-----x--|

oh, and B is 224442!

I'm not sure what this song is really about, but you can feel it in
the music...confusion.^Z
Comments