Supergrass - Id Like To Know Chords & Tabs

 

Id Like To Know Chords & Tabs

Supergrass Chords & Tabs

Version: 1 Type: Tab 0 ratings
1 star 2 stars 3 stars 4 stars 5 stars
comments

Id Like To Know Tab

   
#----------------------------------PLEASE NOTE---------------------------------#
#This file is the author's own work and represents their interpretation of the #
#song. You may only use this file for private study, scholarship, or research. #
#------------------------------------------------------------------------------#
From: Kevin Mulhern 
Subject: I'd like to know by Supergrass
Date: Tue, 19 Dec 1995 18:34:47 GMT


                   I'd Like To Know

                            by
                        Supergrass

INTRO:

One! Two!   One! Two! Three! Four! 

E|-------------------------------------------------------|
B|-------------------------------------------------------|
G|-------------------------------------------------------|
D|-------------------------------------------------------|
A|--21/////////////////////////////////////////////2---|
E|--19/////////////////////////////////////////////0---|

Slide down, strumming as fast as you can!!

VERSE 1

 E (x7999x)   D (x5777x)   E   D   E   D   E  D  A  E

BRIDGE

A                    C                       D    
Never had it so good (so long so live) now got it             

D#                   E     
It could be love before


VERSE 2

CHORUS  F C A D

VERSE 2



CHORUS

SOLO

CHORUS

ENDING:
             
Use Barre chords 

E|-------------------------------------------------------|
B|-------------------------------------------------------|
G|-------------------------------------------------------|
D|-------------------------------------------------------|
A|--21\\\\\\\\\\\\\\\\\\\\\\\\\\\\\\\\\\\\\\\\\\\\\2---|
E|--19\\\\\\\\\\\\\\\\\\\\\\\\\\\\\\\\\\\\\\\\\\\\\0---|

G     A   Bb
G     A   D
G     A   Bb
D     D/C# (x4777x)     B7   G   F#m   A
D     D/C#   B7   G 

G     A   Bb
G     A   D
G     A   Bb
D     D/C#     B7   G  F#m  A
D     D/C#     B7   G   

SOLO:
[ Tab from: http://www.guitartabs.cc/tabs/s/supergrass/id_like_to_know_tab.html ]
E|---10-10-10-------10-10-10-------10-10----------------------------------------|
B|---10-10-10-------10-10-10-------10-10-------12--10---------------------------|
G|------------12b--------------12b----------12b 12--10-------------------10-12--|
D|-------------------------------------------------------------------12-12-12-12|
A|------------------------------------------------------------------------------|
E|------------------------------------------------------------------------------|


E|------------------------------------------------------------------------------|
B|------------------------------------------------------------------------------|
G|-----------10---------10----------10---------10---12b-12b-12b-12b-12b-12b-----|
D|---10\12----10\12-----10\12-----10\12-----------------------------------------|
A|------------------------------------------------------------------------------|
E|------------------------------------------------------------------------------|


E|------------------------------------------------|
B|---10b-10b-10b-10b-10b-10b-10b------------------|
G|------------------------------------------------|
D|------------------------------------------------|
A|------------------------------------------------|
E|------------------------------------------------|


      Bb                            Dm     F   Dm7
E|--------------------------------------------------------------|
B|------------------------------------6-6-6--10--6-6-6----|
G|---7-7-7-7-7-7-7-7-7-7-7---7-7-7--10--5-5-5----|
D|---8-8-8-8-8-8-8-8-8-8-8---7-7-7--10--7-7-7----|
A|---8-8-8-8-8-8-8-8-8-8-8---5-5-5---8---5-5-5----|
E|---6-6-6-6-6-6-6-6-6-6-6------------------------------|

      Bb                            C                          A
E|-----------------------------------8---8---8--8---8---8---5-5-5-5-5-5-5-5-5-5-|
B|-----------------------------------8---8---8--8---8---8---5-5-5-5-5-5-5-5-5-5-|
G||---7-7-7-7-7-7-7-7-7-7-----9---9---9--9---9---9---6-6-6-6-6-6-6-6-6-6--------|
D|---8-8-8-8-8-8-8-8-8-8----10-10-10-10-10-10---7-7-7-7-7-7-7-7-7-7-------------|
A|---8-8-8-8-8-8-8-8-8-8----10-10-10-10-10-10---7-7-7-7-7-7-7-7-7-7-------------|
E|---6-6-6-6-6-6-6-6-6-6-----8---8---8---8---8--8---5-5-5-5-5-5-5-5-5-5---------|

      G       A       Bb                        C             D
E|---3-3-3--5-5-5--6-6-6-6-6-6---6-6-6---8---8--8----10--|
B|---3-3-3--5-5-5--6-6-6-6-6-6---6-6-6---8---8--8----10--|
G|---4-4-4--6-6-6--7-7-7-7-7-7---7-7-7---9---9--9----11--|
D|---5-5-5--7-7-7--8-8-8-8-8-8---8-8-8--10-10-10---12----|
A|---5-5-5--7-7-7--8-8-8-8-8-8---8-8-8--10-10-10---12----|
E|---3-3-3--5-5-5--6-6-6-6-6-6---6-6-6---8---8---8---10--|


Tabbed by:

--
   __________________   _____________________________________________
  /                  \ /                                             \
 |   Andrew Mulhern   |         I am Today, You are Tomorrow          |
 |   **************   |  I Light the Way, While You Drown the Sorrow  |
  \__________________/ \_____________________________________________/
                                  \ mulhern@zetnet.co.uk /
                                   **********************   
Comments