Supergrass - Eon Chords & Tabs

 

Eon Chords & Tabs

Supergrass Chords & Tabs

Version: 1 Type: Tab 0 ratings
1 star 2 stars 3 stars 4 stars 5 stars
comments

Eon Tab

##################################################################################
# This file is the author's own work and represents their interpretation of the  #
# song. You may only use this file for private study, scholarship, or research.  #
##################################################################################

Supergrass - Eon

- Tabbed by William Woollard


Opening Riff

e-------------------------------------------------------------------------
b-------------------------------------------------------------------------
g-------------7----------6-----5------------4-------2-----2/7-------------
d--------7---------6-----5------------4-----3-------2-----2/7-------------X 2
a-------------------------------------------------------------------------
e-------------------------------------------------------------------------

e--------0------0-----0-----0----0----0----0--------
b--------0------0-----0-----0----0----3----0--------(Strum to rhythm
g -------7------7-----6-----5----5----4----4--------of lead guitar)
d--------7------6-----5-----5----4----3----2--------
a---------------------------------------------------
e---------------------------------------------------

Main Riff

e------------------------------------------4-------------------4-------------------4--------------
b--------------2------------2--------------------2--------------------2-------------------2-------
g------------------2-------------2---------------------2----------------------2-----------------2-
d------2--------------2-------------2-------------------------------------------------------------
a-------------------------------------------------------------------------------------------------
e-------------------------------------------------------------------------------------------------
[ Tab from: http://www.guitartabs.cc/tabs/s/supergrass/eon_tab.html ]
e-----------------------------------------------4-------------------4-----------------------------
b----------------2---------------2--------------------2----------------------2--------------2-----
g-------------------2---------------2------------------------2----------------------2-------------
d-------2/4-------------4--------------3----------------------------------------------------------
a-------------------------------------------------------------------------------------------------
e-------------------------------------------------------------------------------------------------


e-------------------------------------------------------------------------------------------------
b--------------3------------------2--------------------3--------------------3----------------3----
g--------------------2--------------------2-------------------2-------------------2---------------
d-------2/4------------------4--------------------4---------------------4---------------4--------4
a-------------------------------------------------------------------------------------------------
e-------------------------------------------------------------------------------------------------

e-------------------------------------------------------------------------------------------------
b-------------4------------------4-----------------4-----3------------------3----------3----------
g------------------2------------------2--------------------------2---------------2----------2-----
d-------------------------4------------------4--------------------------4------------4-----------4
a-------------------------------------------------------------------------------------------------
e-------------------------------------------------------------------------------------------------

End Riff
Same as ‘Opening Riff’

Comments, Additions, Corrections - E-mail them to W_Woollard@Hotmail.com

Comments