Supergrass - Cheapskate Chords & Tabs

 

Cheapskate Chords & Tabs

Supergrass Chords & Tabs

Version: 1 Type: Tab 0 ratings
1 star 2 stars 3 stars 4 stars 5 stars
comments

Cheapskate Tab

##################################################################################
# This file is the author's own work and represents their interpretation of the  #
# song. You may only use this file for private study, scholarship, or research.  #
##################################################################################

Supergrass - Cheapskate


- Tabbed by Simon Prime.


e ----------------------------------------
B ----------------------------------------
G ----------------------------------------
D ----5-0-4-----5-0-4-----5-0-4-----5-0-4-
A 0-5-------0-5-------0-5-------0-5-------
E ----------------------------------------

THIS RIFF ALL THRU THE VERSE


BACK TO RIFF


SAME AS CHORUS *1

THEN THE MIDDLE PART RIFF

THIS^ MEANS BEND STRING UP WHILST PLAYING
[ Tab from: http://www.guitartabs.cc/tabs/s/supergrass/cheapskate_tab.html ]
e -------------------------------------
B -------------------------------------
G --7---6 LET RING-------------7---6---
D 0---0----------------------0---0-----
A ----------------------5--------------
E ------------------5-7---7------------

e ------------------------------------------
B ----------------------------------------10
G 7^7^7^7^7^7^7^7---------------------------
D -----------------9-7-7-9-7-9-7--7-9-7-9---
A ------------------------------------------
E ------------------------------------------

e -------------------------------
B --------10---------10----------
G ----------------------7^7^7^7-- THEN STRAIGHT TO THE 
D 7-9-7-9----7-9-7-9------------- A CHORD ON THE CHORUS.
A -------------------------------
E -------------------------------

CHORUS*2
AT THE END ITS

e -------------------------------------
B -------------------------------------
G --7---6 LET RING-------------7---6---
D 0---0----------------------0---0-----
A ----------------------5--------------
E ------------------5-7---7------------

Comments