Supergrass - Cheapskate Chords & Tabs

 

Cheapskate Chords & Tabs

Supergrass Chords & Tabs

Version: 1 Type: Bass Tab 0 ratings
1 star 2 stars 3 stars 4 stars 5 stars
comments

Cheapskate Bass Tab

   
-----------------------------------------------------------------------------
			     CHEAPSKATE - Supergrass
-----------------------------------------------------------------------------

Tabbed By : Stephen Healy
e-mail: steeeeeve3@hotmail.com

Tuning: Standard Tuning EADG
[ Tab from: http://www.guitartabs.cc/tabs/s/supergrass/cheapskate_btab.html ]
Verse
G|--------------------------------------------------------------------------|
D|---------5---4------------------------------------------------------------|
A|-----5h7---7--------------------------------------------------------------|
E|--5-----------------------------------------------------------------------|

Chorus
G|--------------------------------------------------------------------------|
D|--------------------------------------------------------------------------|
A|--------------------------------7-7-5h7-7-5-------------------------------|
E|-5-5-555-5--5-5-555-5-7-7-777-9-------------7-5---------------------------|

And thats it.


| /  slide up
| \  slide down
| h  hammer-on
| p  pull-off
| ~  vibrato
| +  harmonic
| x  Mute note
=============================================================================
Comments