Supergrass - Caught By The Fuzz Chords & Tabs

 

Caught By The Fuzz Chords & Tabs

Supergrass Chords & Tabs

Version: 1 Type: Tab 0 ratings
1 star 2 stars 3 stars 4 stars 5 stars
comments

Caught By The Fuzz Tab

   
##################################################################################
# This file is the author's own work and represents their interpretation of the  #
# song. You may only use this file for private study, scholarship, or research.  #
##################################################################################

Supergrass - Caught by the Fuzz


- Tabbed by Mark@snowhite.demon.co.uk (Mark Curran)
                    
[ Tab from: http://www.guitartabs.cc/tabs/s/supergrass/caught_by_the_fuzz_tab.html ]
  START              VERSE                       F#m
  ------------- -------------------------------22222222------
  ------------- -------------------------------22222222------
  ------------- -------------77777777-66666666-22222222------
  ------7------ ----77777777-77777777-66666666-44444444------
  ------7-x16-- ----77777777-55555555-44444444-44444444------
  ------5------ ----55555555-------------------22222222------
                             
  CHORUS  F#       G#    F#m E   D    D    E
  ------22222222-44444444-22-00 2222-2222-0000---------------
  ------22222222-44444444-22-00 3333-3333-0000---------------
  ------33333333-55555555-22-11 2222-2222-1111---------------
  ------44444444-66666666-44-22 0000-0000-2222---------------
  ------44444444-66666666-44-22-----------2222---------------
  ------22222222-44444444-22---------------------------------
  

  MIDDLE  F#m      E         D         E   F    Bb  E
  --22222222222222-00-2222222222222222-00-1111------00----------------------------------||-
  --22222222222222-00-3333333333333333-00-1111-3333-00----------------------------------||-
  --22222222222222-11-2222222222222222-11-2222-3333-11----------------------------------||-
  --44444444444444-22-0000000000000000-22-3333-3333-22----------------------------------||-
  --44444444444444-22------------------22------1111-22----------------------------------||-
  --22222222222222----------------------------------------------------------------------||-
  
  CODA   A        Amaj7
  ----00000000--000000000---                                                              -
  ----22222222--222222222---
  ----22222222--111111111---
  ----22222222--222222222---
  ----00000000--000000000---
  --------------------------


Mail me at mark@snowhite.demon.co.uk.

--

Mark
Comments