Supergrass - Cant Get Up Chords & Tabs

 

Cant Get Up Chords & Tabs

Supergrass Chords & Tabs

Version: 1 Type: Tab 0 ratings
1 star 2 stars 3 stars 4 stars 5 stars
comments

Cant Get Up Tab

   
##################################################################################
# This file is the author's own work and represents their interpretation of the  #
# song. You may only use this file for private study, scholarship, or research.  #
##################################################################################


SUPERGRASS - Can't Get Up

Took me bloody ages but i'm pretty sure it's all right

Email me if it's not

starsailoruk@yahoo.com


CHORDS USED

 Bbm7   Bbm   Cbm7  C#    D#    F#    Fm

e--1-----1-----3-----------------2-----1------------------||-
B--2-----2-----4-----6-----8-----2-----1------------------||-
G--1-----3-----3-----6-----8-----3-----1------------------||-
D--3-----3-----5-----6-----8-----4-----3------------------||-
A--1-----1-----3-----4-----6-----4-----3------------------||-
E--1-----1-----3-----------------2-----1------------------||-

On Bbm7 and Cbm7  in the verse, it sounds better if you just play the 
top 3 or 4 strings

INTRO  (Play 4 times)
[ Tab from: http://www.guitartabs.cc/tabs/s/supergrass/cant_get_up_tab.html ]
    Bbm7    Cbm7 Bbm7 
e-----1---------3\1-----4-1-------------------------------------||-
B------2---2----4\2--2------2-----------------------------------||-
G---------------3\1------------1--------------------------------||-
D--------3------------------------------------------------------||-
A--1------------------------------------------------------------||-
E---------------------------------------------------------------||-




REPEAT INTRO 11 TIMES OVER:

Standing in a forest of reason


starsailoruk@yahoo.com


****************************************************************************************************************

****************************************************************************************************************


Supergrass - Beautiful People


- Tabbed by Bill Robinson


intro:e-2-12----2-12-----2-12-----2-12-----||-
      B-2-12----2-12-----2-12-----2-12-----||-
      G-2-------2--------2--------2--------||-
      D-4----2--4-----2--4-----2--4-----2--||-
      A------2--------2--------2--------2--||-
      E------0--------0--------0--------0--||-


outro:F#m  Em  F#m  Em
      F#m  Em  F#m  Em
      F#m  Em  F#m  Em
      F#m  Em  F#m  Em
      F#m  Em  F#m  E


**************************************************************************************************************************

**************************************************************************************************************************

Comments