Supergrass - Born Again Chords & Tabs

 

Born Again Chords & Tabs

Supergrass Chords & Tabs

Version: 1 Type: Tab 0 ratings
1 star 2 stars 3 stars 4 stars 5 stars
comments

Born Again Tab

   
Supergrass - Born Again

- Tabbed by Andy Chillingworth

A	x0222x
C	x32010
D	xx0232
G/D	xx0033
C/D	xx0010
RIFF 1
e -------8--------8--7---------7--7-----7-----------
B ----------6----------5>6-----------6----6----------
G ----7--------------------------------------7-------
D -0------------------------------------------------
A --------------------------------------------------
E --------------------------------------------------

RIFF 2
e -------8--------8--7---------7--7-----7-----------
B ----6-----6----------5>6------------6---6-----------
G --------------------------------------------7------
D -0------------------------------------------------
A --------------------------------------------------
E --------------------------------------------------

RIFF 3
   A                   C                   D         G/D  C/D    D
[ Tab from: http://www.guitartabs.cc/tabs/s/supergrass/born_again_tab.html ]
e ------------------------------------------------------------------------------
B -----2---2--0---------------1---0--------------------------------------3------
G -----2---2--2--2--0------0--0---0--2--0-------2----4----4h5--4-0-------0--0---
D ---2---2-------2--0----2------2----------0----0----0----0----0-0--2/4-------4-
A -0-------------------3--------------------------------------------------------
E ------------------------------------------------------------------------------


INTRO: RIFF1 X2, RIFF2 X2, RIFF1 X2, RIFF2 X2, RIFF1 X2, RIFF2 X2, RIFF1 X2, RIFF2 X2.

CHORUS: RIFF3 
        Whatever you want it's all right
        RIFF3
        There's still a place in my heart, it's all right    



VERSE:
RIFF1
There’s something calm

RIFF1
You’ll need no arms

RIFF2                           RIFF2
You're over the moon, she said

RIFF1
You keep me warm

RIFF1
Like some other fawn

RIFF2                            RIFF2
You're over the moon, she said

CHORUS: x2 


 









Comments