Superdrag - Who Sucked Out The Feeling Chords & Tabs

 

Who Sucked Out The Feeling Chords & Tabs

Superdrag Chords & Tabs

Version: 1 Type: Tab 0 ratings
1 star 2 stars 3 stars 4 stars 5 stars
comments

Who Sucked Out The Feeling Tab

Song: Who sucked out the feeling
Band: Superdrag
Genre: punk

Tab by: Mikey (RiverFenixTX16@aol.com)
This song is old school back in my hay day in 95. J/k

Intro:
e-----------------------------------------------------------|
B-----9----------------5------------------------9-----------|
G-----9-------8--------6-------5-------6--------9-----------|
D---9---9-----9------6---6-----6-------7------9---9---------|
A-7---------9---9--4---------6---6---7---7--7---------------|
E---------7----------------4-------5------------------------|

e---------(7)-|
B---------(7)-|
G------8------|
D-----9-------|
A---9---------|
E-7-----------|

Chorus: power chords
e----------------------------------------------------------|
B----------------------------------------------------------|
G--9---------------6-------------------------------4-------|
D--9-(4x)--9-------6-(4x)--6-------7-------2-------4-(4x)--|
A--7-------9-(4x)--4-------6-(4x)--7-(4x)--2-(4x)--2-------|
E----------7---------------4-------5-------0---------------|
[ Tab from: http://www.guitartabs.cc/tabs/s/superdrag/who_sucked_out_the_feeling_tab.html ]
Verse: These chords are up beats
e------------------------------------------------------------------|
B--5-------------5---------------------4--------------4---------4--|
G--6------5------6-------5------3------4-------3------4--------4---|
D--6-(4x)-6------6-(4x)--6------4------4-------4------4-------4----|
A--4------6-(4x)-4-------6-(4x)-4-(4x)-2-(4x)--4-(4x)-2-(2x)-2-----|
E---------4--------------4------2--------------2-------------------|

Solo:
e-----------------------------------------------------------|
B-9-9------------------------------------9------------------|
G--------8-8-8-9-8----8----8-------8-9------11--------------|
D------9-----------11---10---11-11-----9--------------------|
A-----------------------------------------------------------|
E-----------------------------------------------------------|

e-----------------------------------------------------------|
B-9-9-----------------------------------9-------9-10-9------|
G-------8-8-8-9-8----8----8-------8-9------11----------11-9-|
D-----9-----------11---10---11-11-----9-------9-------------|
A-----------------------------------------------------------|
E-----------------------------------------------------------|

Outro:
e----------------------------------|
B----------------------------------|
G----------------------------------|
D-7----6----4----2-----------------|
A-7-4x-6-4x-4-4x-2-4x--------------|
E-5----4----2----0-----------------|
Comments