Superdrag - Who Sucked Out The Feeling Chords & Tabs

 

Who Sucked Out The Feeling Chords & Tabs

Superdrag Chords & Tabs

Version: 3 Type: Bass Tab 0 ratings
1 star 2 stars 3 stars 4 stars 5 stars
comments

Who Sucked Out The Feeling Bass Tab

Who Sucked Out the Feeling - complete tab
by Alex Huth

m - mute after play...


Verse:
G|----------------------------------------------------
D|----------------------------------------------------
A|--------2-2-2-2-4-4-4-4---------0-0-0-0-------------
E|0-0-0-0-----------------4-4-4-4---------4-4-4-4-2-2-

G|----------------------------------------------------
D|----------------------------------------------------
A|----------------------------------------------------
E|2-2-2-2-2-2-----------------------------------------

[ Tab from: http://www.guitartabs.cc/tabs/s/superdrag/who_sucked_out_the_feeling_btab_ver_3.html ]
Bridge:
G|----------------------------------------------------
D|----------------------------------------------------
A|4m-4m-4m-4m-------------4m-4m-4m-4m-----------------
E|------------4m-4m-4m-4m-------------4m-4m-4m-4m-2m--

G|----------------------------------------------------
D|----------------------------------------------------
A|----------2m-2m-2m-2m-------------2m-2m-2m-2m-------
E|-2m-2m-2m-------------2m-2m-2m-2m-------------------


Chorus:
G|-2---2-1---1------------4---2---2-1---1------------4
D|------------4---4-2-1-2----------------4---4-2-1-2--
A|----------------------------------------------------
E|----------------------------------------------------

-or- (I find this a bit easier, if further down)
G|----------------------------------------------------
D|-7---7-6---6------------9---7---7-6---6------------9
A|------------9---9-7-6-7----------------9---9-7-6-7--
E|----------------------------------------------------


And thats it!! Have fun...
Comments