Superdrag - Truest Love Chords & Tabs

 

Truest Love Chords & Tabs

Superdrag Chords & Tabs

Version: 1 Type: Tab 0 ratings
1 star 2 stars 3 stars 4 stars 5 stars
comments

Truest Love Tab

   
Truest Love
by J. Davis
arr. by Superdrag

note: the c and f chords during the verse can also be
	played as cmaj7 and fmaj7.	

      C                       F
	you are my intoxicating wish
	
	C                                F
	so much more to live for than my fist

      C                    
	if i want to breathe with you
	
	Ab                                  Eb
	close my eyes and let you see right thru

                 F
	that's a scary thing to do

                 F
	it's the very thing i do

                 F
	it's the very thing i do
[ Tab from: http://www.guitartabs.cc/tabs/s/superdrag/truest_love_tab.html ]
the lead fill played before the chorus is:
e|-------------------------------------------------|
B|-------------------------------------------------|
G|-10-10-9-9-7-9-7-9-------------------------------|
D|-------------------------------------------------|
A|-------------------------------------------------|
E|-------------------------------------------------|

for most accurate sound, do this for the verse chords:
   Cmaj7                         Fmaj7
e|-------------------------------------------------------------|
B|-------------------------------------------------------------|
G|-------------------------------------------------------------|
D|---------------------------------7-7-7--7-7-7---7-7-7--7-7-7-|
A|---7-7-7--7-7-7---7-7-7--7-7-7-7/8-8-8--8-8-8-7/8-8-8--8-8-8-|
E|-7/8-8-8--8-8-8-7/8-8-8--8-8-8-------------------------------|








Comments