Superdrag - The Warmth Of A Tomb Chords & Tabs

 

The Warmth Of A Tomb Chords & Tabs

Superdrag Chords & Tabs

Version: 1 Type: Tab 0 ratings
1 star 2 stars 3 stars 4 stars 5 stars
comments

The Warmth Of A Tomb Tab

   
The Warmth of a Tomb
by John Davis
arr. by Superdrag

Okay, this one is a bit more complicated than some.
I'll tab the intro, and the verse chords. Most of the
time, they're arpeggiated...

intro:
e|-------------------------------------------------------|
B|-----------------5--5--5---7--7---6--6--3--5--3--2-----|
G|---------6--6----6--7--6---7--7---7--6--4--6--4--2-----|
D|-7--7----6--6----5--5--5---0--0---0--0--0--7--3--2-----|
A|-0--0----0--0----0--0--0-------------------0--0--0-----|
E|-------------------------------------------------------|

then:
Bm      Dm  E
/ / / / / / / /

i know that the intro is kinda complicated, listen to the
cd and you'll get it.

verse:

A    Amaj7  A7             D
hang on    ‘til your dying day

Dm              A       Dm                A      
swinging in the breeze, whistle while you crease
[ Tab from: http://www.guitartabs.cc/tabs/s/superdrag/the_warmth_of_a_tomb_tab.html ]
E   A    Amaj A7            D             
and pray for  something you believe

Dm             A    Dm             A
singing out to see, singing out to me

chorus:

E            A           Amaj7
while in the warmth of a tomb

      A7             F#m             Bm
i was thinking to presume you had to go

                  E                A           Amaj7
something kept me waiting for your call to get through

      A7            F#m
i was sinking in my room

F     Dm     A
................


at the end theres a little bit of:
  F              Dm            A
e|-------------------------------------------------------|
B|-----10------10-----6---6---5---5---5---5--------------|
G|---10--10--10--10--7-7-7-7-6-6-6-6-6-6-6-6-------------|
D|-10------10-------7---7---7---7---7---7----------------|
A|-------------------------------------------------------|
E|-------------------------------------------------------|

Comments