Superdrag - The Art Of Dying Chords & Tabs

 

The Art Of Dying Chords & Tabs

Superdrag Chords & Tabs

Version: 1 Type: Tab 0 ratings
1 star 2 stars 3 stars 4 stars 5 stars
comments

The Art Of Dying Tab

   
The Art of Dying
from "Head Trip in Every Key"
words and music by J. Davis
arr. by Superdrag

notes:  This is a somewhat orchestrated song.  I've condensed the instruments
	into three guitar parts: guitar, sitar, and strings.  The backwards
	solo is arr. for normal guitar.  To recreate the sound on the record,
	the Boss DD-5 has a backwards guitar effect which sounds pretty good.

Intro pt.1-
g. 1 fade in w/sitar

  (Dm)                              (G9)
e|---1-0-------0-1---1-0-------0-1----1-0-------0-1---1-0-------0-1--|
B|-------3---3-----------3---3------------3---3-----------3---3------|
G|-2-------2-------2-------2--------0-------0-------0-------0--------| repeat a few times.
D|-------------------------------------------------------------------|
A|-------------------------------------------------------------------|
E|-------------------------------------------------------------------|
  (ahhhh.....      ahhh ahhh ahhhhhhh.....)

Intro pt.2- (enter drums, bass, strings)


g. 1
  (Dm)
e|-1-1-0-------0-1-1-1-0-------0-1--------|
B|-3-----3---3-----3-----3---3------------|
G|-2-------2-------2-------2--------------| (then repeat, with G9 as above)(2x)
D|-0-------0-------0-------0--------------|
A|----------------------------------------|
E|----------------------------------------|

sitar arr. for g. 2
e|-----1-010---0---------1-010---0-1-5-3~------------------0-1-010-------|
B|-----------3---3-------------3-------------------------3---------3-----|
G|-2-2-------------2-2-2-------------------------------2-------------3-2-|
D|-----------------------------------------------------------------------|
A|-----------------------------------------------------------------------|
E|-----------------------------------------------------------------------|
[ Tab from: http://www.guitartabs.cc/tabs/s/superdrag/the_art_of_dying_tab.html ]
strings arr. for g. 3
e|-1--1--1--1--1--1--1--1--1--1--1--1--1--1--1---1--1------0-1-010-------|
B|-3--3--3--3--3--3--3--3--1--1--3--3--3--3--3-1-2--3----3---------3-----|
G|-2--2--2--2--2--2--2--2--2--2--2--0--0--0--0---0--0--2-------------3-2-|
D|-----------------------------------------------------------------------|
A|-----------------------------------------------------------------------|
E|-----------------------------------------------------------------------|

verse-

with this guitar part:
G|-2-2-2-0-2-0-2-0-2-2-2-0-2-0-2-0-| repeat throughout


	Asus2           Cmaj7          Dsus2            Fsus4
        /////////////// ////////////// //////////////// //////////////
	unbecome and    unborn         slipping off the uniform...
	missing from the chain gang    nothing isn't    anything
	nothing isn't one place	       streets of gold in outer space
	let your fragile mind go       forget you are forget you know

	Asus2           Cmaj7
	/////////////// //////////////
	forget the song forget the show
	the clear light drop begins to flow and

	Stgs and g.1
	g(oct)           G#(oct)         A5(sus2)              
	/ / / / / / / /  / / / / / / / / //////// ////////
	we don't have to talk about it   now

next, go back to the intro pt. 2
and start over.

solo-
e|------------------------------------------------------------------|
B|-------------------------)----)-----------------------------------|
G|-------------5--5-4-~~5-5--3-5--3---4-5-7-4-5-7-7-5---------------|
D|-~~~~7-5-~~7----------------------7-----------------7-------------|
A|------------------------------------------------------~~3-~~3-----|
E|------------------------------------------------------------------|

e|----------------)--)--)-------------------------------------------|
B|-----------5-6-7--7--7--5-----------------------------------------|
G|---5-4-5-7----------------5-4-5-7---------------------------------|
D|-7--------------------------------5-4-5---------------------------|
A|----------------------------------------5-~~~4--------------------|
E|------------------------------------------------------------------|


	   E A D g B E
	G9-x x x 0 3 1
     Asus2-x 0 2 2 0 0
     Cmaj7-x 3 2 0 0 0
     Dsus2-x x 0 2 3 0
     Fsus4-1 3 3 2 0 x









Comments