Superdrag - Sold You An Alibi Chords & Tabs

 

Sold You An Alibi Chords & Tabs

Superdrag Chords & Tabs

Version: 1 Type: Tab 0 ratings
1 star 2 stars 3 stars 4 stars 5 stars
comments

Sold You An Alibi Tab

   
Sold You An Alibi
Head Trip in Every Key
words and muisc by John Davis
arr. by Superdrag

Intro-(lead fig. 1)(lead fig. 2)
      
Verse-(w/lead fig. 2)
	(D5)        (F#5)
	Sold you my therapy

        (D5)            (F#5)
	You can suss it out

        (D5)          (F#5)
	Bought a new enemy

	(D5)               (F#5)
	She can smoke this doubt

Chorus-
	B5                     E5
	Every disgrace already made
 
              A5           A5/G#      F#5 (w/lead fig. 1)
	Every word tasting bitter and betrayed

        B5                         E5
	Looking for lies, sympathy f**k

                A5           A5/G#           F#5 (w/lead fig. 1)
	Useless heart didn't wanna change my luck

                   (w/lead fig. 2)
	What about today?


Outro-
	F#m (slow strum upstroke, let ring)(w/lead fig. 3)

[ Tab from: http://www.guitartabs.cc/tabs/s/superdrag/sold_you_an_alibi_tab.html ]
lead fig. 1
e|--------------------------------------------|
B|--------------------------------------------|
G|-2--2--4-4-2-4-4---4-2----------------------|
D|-4--4--4-4-4-4-4---4-4----------------------|
A|-4--4--4-4-4-4-4---4-4----------------------|
E|--------------------------------------------|

lead fig. 2
e|-------------------------------------------------------|
B|-------------------------------------------------------|
G|-2--4--4-2---2--4-4--4-2-4-2--2--4--4-2---2--4-4--4-2--|
D|-0--0--0-0---0--0-0--0-0-0-0--4--4--4-4---4--4-4--4-4--|
A|-------------------------------------------------------|
E|-------------------------------------------------------|

lead fig. 3
e|-------------------------------------2-------|
B|-------------------------------------2-------|
G|-------------------------------------2-------|
D|-3-4-5-454---3-----------------------4-------|
A|-----------5---4-5-454-3---3---------4-------|
E|-------------------------5---5-4-3-2-2-------|

	E A D G B E
A5      5 7 7 x x x

A5/G#   4 7 7 x x x 

B5      7 9 9 x x x 

D5*     x 5 7 7 x x

E5      0 7 9 9 x x

F#5     2 4 4 x x x

F#m     2 4 4 2 2 2

*D5 not actually played; implied.

      

	

Comments