Superdrag - Slot Machine Chords & Tabs

 

Slot Machine Chords & Tabs

Superdrag Chords & Tabs

Version: 1 Type: Tab 0 ratings
1 star 2 stars 3 stars 4 stars 5 stars
comments

Slot Machine Tab

   
Slot Machine
Regretfully Yours
words and music by John Davis
arr. by Superdrag

Intro-
G. 1-D5 
     ////////////////

G. 2-D(oct)
     ////////////////

Verse-
        D                        Dmaj7
	I don't know what I'm to say......(lead fig. 1)        
	
        D7                   G5 
	You can't hear me anyway

	        D5     F#5  B5     A5    G5
	Does it really even matter if we play?

                D5
	Hey hey hey.....(Intro)


Bridge-(w/lead fig. 2)
	D5               F#5
	//////////////// ////////////////

	G5
	///////////////// ////////////////

	
Outro-(w/lead fig. 3)
	G(oct.) w/fdbk.
	/   /   /   /

 
  lead fig. 1
e|--------------------------------------------|
B|--------------------------------------------|
G|-----6~~-7-6-5~~~---------------------------|
D|--------------------------------------------|
A|--------------------------------------------|
E|--------------------------------------------|
[ Tab from: http://www.guitartabs.cc/tabs/s/superdrag/slot_machine_tab.html ]
  lead fig. 2
e|--------------------------------------------|
B|--------------------------------------------|
G|-7-7-7-7-7-7-7-7-11-11-11-11-11-11-11-11----|
D|--------------------------------------------|
A|-5-5-5-5-5-5-5-5--9--9--9--9--9--9--9--9----|
E|--------------------------------------------|

  lead fig. 2 con't
e|--------------------------------------------------|
B|--------------------------------------------------|
G|-12-12-12-12-12-12-12-12-11-11-11-11-11-11-11-11--|
D|--------------------------------------------------|
A|-10-10-10-10-10-10-10-10-10-10-10-10-10-10-10-10--|
E|--------------------------------------------------|

  lead fig. 3
e|-------------------------------------------------|
B|-------------------------------------------------|
G|-------11----11----------------11----11----11-12-|
D|----12----12----12----12----12----12----12-------|
A|-10----------------10----10----------------------|
E|-------------------------------------------------|


Chords used:
       E A D G B E

A5     5 7 7 x x x

B5     2 4 4 x x x

D5     x 5 7 7 x x

D(oct) x 5 x 7 x x

D+     x 5 7 7 7 x

Dmaj7  x 5 7 6 7 x

D7     x 5 7 5 7 x

F#5    2 4 4 x x x

G+     3 x 5 4 x x

G5     3 5 5 x x x

G(oct) 3 x 5 x x x







 
Comments