Superdrag - Sleeping Beauty Chords & Tabs

 

Sleeping Beauty Chords & Tabs

Superdrag Chords & Tabs

Version: 1 Type: Tab 0 ratings
1 star 2 stars 3 stars 4 stars 5 stars
comments

Sleeping Beauty Tab

   
Sleeping Beauty
by J. Davis
arr. by Superdrag


intro- listen to the cd for exact rythym
e|-----------------------------------------|
B|-3-3-3-----3-3-3-----3-3-3-----3-3-3-----|
G|-4-----4~--4-----4~--4-----4~--4-----4~--|
D|-5-------5---------5-5-------5---------5-|
A|-----------------------------------------|
E|-----------------------------------------|

intro cont.-
e|-----------------------------------------|
B|-7---7-7-----7---7---7-7---7-------------|
G|---7---7---7---7---7---7-7---7-----------|
D|-----9-9-----------9-9-------------------|
A|-----------------------------------------|
E|-----------------------------------------|
[ Tab from: http://www.guitartabs.cc/tabs/s/superdrag/sleeping_beauty_tab.html ]
intro cont.- 2x i think
e|-----------------------------------------|
B|-----------8----------------8------------|
G|-11~--9----9----11~---9-----9------------|
D|-10--10-10---10------10--10---10---------|
A|-----------------------------------------|
E|-----------------------------------------|

         
	G
verse-	nicotine, more than an hour 
	
	G					
	i get clean, blood comes sour when you 
	
	Bm
	throw down 
	
                                    C
	good eye clouded, cause you missed me 

	G
	it's been years, adding up hours 
	
    
	none too clear, superpower takes me 

	Bm	
	so down, so down, so down 
	
				      C	
	think i'm drowning, could you kiss me? 

	Bm          C
	it shall be right 

          G            D
	i swear, but i lie 

	Bm         C                     Asus2     Cmaj7
	if you can see right through the spaces in goodbye





Comments