Superdrag - Phaser Chords & Tabs

 

Phaser Chords & Tabs

Superdrag Chords & Tabs

Version: 1 Type: Tab 0 ratings
1 star 2 stars 3 stars 4 stars 5 stars
comments

Phaser Tab

   
Phaser
Regretfully Yours
words and music by John Davis
arr. by Superdrag

Intro (pt.1)-(w/fdbk.)(bass fig. 1)

-bass plays bass fig. 1 for four meas. as
 feedback dies out, then guitars come in with:

	E5       B5        C6  C5 C6  C5
	//////// ///////// /// /  /// /  x4
                           \___________/
                           w/lead fig. 1

Intro (pt.2)-

	G5       C5       G5       C5
        / / // / / // / / / / // / / // / /
                                   \______/
                                   w/lead fig. 2

Verse- (same as intro pt. 2)
	G5                             C5
	I don't even wonder if they're gonna put me under

        G5                             C5
	You're here now...  and I'm on fire...

Prechorus- (w/lead fig. 3)
       (B5)  (A5) (G5)                    (A5)
	I    come down again, take you in again

       (A5)
	There's nothing to regret now

       (A5)
	Breathe you in like a cigarette now...

Chorus- (with intro pt. 1)(w/lead fig. 4)

	E5        B5      C6  C5  C6  C5
        Dream....

            E5      B5      C6 C5 C6 C5
	Now dream.....

	    E5          B5          C6  C5  C6  C5
	Now dream...now dream...now dream...

Outro- 

	E5       B5       Cmaj7
	//////// //////// /
[ Tab from: http://www.guitartabs.cc/tabs/s/superdrag/phaser_tab.html ]
bass fig. 1 (arr. for guitar)
e|-----------------------------------------------|
B|-----------------------------------------------|
G|-----------------------------------------------|
D|-----------------------------------------------|
A|-----------------2-2-2-2-2-2-2-3-3-3-3-3-3-3-3-|
E|-0-0-0-0-0-0-0-0-------------------------------|

lead fig. 1
e|--------------------------------------|
B|-10-10-10-8~~--10-10-10-8~~-----------|
G|--------------------------------------|
D|--------------------------------------|
A|--------------------------------------|
E|--------------------------------------|

lead fig. 2
e|-----------10------------------10-----|
B|-12--12-10----12~~-12---12-10----12~~-|
G|--------------------------------------|
D|--------------------------------------|
A|--------------------------------------|
E|--------------------------------------|

lead fig. 3
e|-------------------------------------------------------|
B|-12~~~--10~~~~--8~~~~----------------------------------|
G|----------------------0----2~~~~-------2-0-2-0-2-0-2-0-|
D|-------------------------------------------------------|
A|-------------------------------------------------------|
E|-------------------------------------------------------|

lead fig. 4
e|-------------------------------------------------------------------|
B|--------------------------------------------------3-----------3----|
G|-12-12-12-12-12-12-12-12-7-7-7-7-7-7-7-7---4--4-2---4--4--4-2---4--|
D|-------------------------------------------------------------------|
A|-10-10-10-10-10-10-10-10-5-5-5-5-5-5-5-5---------------------------|
E|-------------------------------------------------------------------|

Chords used:

	E A D G B E

B5      x 2 4 4 x x

C5      x 3 5 x x x 

C6      x 3 7 x x x 

Cmaj7   x 3 5 4 5 3

E5      0 2 2 x x x

G5      3 5 5 x x x





Comments