Superdrag - Hellbent Chords & Tabs

 

Hellbent Chords & Tabs

Superdrag Chords & Tabs

Version: 1 Type: Tab 0 ratings
1 star 2 stars 3 stars 4 stars 5 stars
comments

Hellbent Tab

   
Hellbent
Head Trip in Every Key
words and music by John Davis
arr. by Superdrag

Intro-(two meas. of drum
	E5    B5 C#5   B5 E5    B5 C#5   B5 
	///// /  ///// /  ///// /  ///// /  

	C5       A5       E5       B5
        ///// /  ///// /  ///// /  /////
	

Verse-
	      E5              C#m         G#m
	I was hellbent...  to burn up the world

	       C#m       G#m    F#5     Bsus4 B7 B9 B7
	With a beautiful girl I created

	        E5                 C#m      G#m
	Till my god said... take a powerful pill

	         C#m         G#m        F#5     Bsus4 B7 B9 B7
	Like the fool on the hill and I waited


Prechorus-
	Am                       E6
	Everybody wants to hang around

	Am                          E6    E5
	Everybody wants to bring me down

Chorus-
	F#m         G#         C#     C#/G#  F#m
	This simple prayer.. I say without a sound
[ Tab from: http://www.guitartabs.cc/tabs/s/superdrag/hellbent_tab.html ]
	F#m7           B7        E    
	Get me off the ground... uh huh...

Bridge-
	E      Esus4 E      Esus4
	/////  /     /////  /

Solo- (w/bridge)
e|------9------------------)---)---)-----------------------------|
B|----)----------------)-11)-11)-11)-11----)--)------------------|
G|--11----11-11-9----11--11--11--11--11--11-11-11-9---9----------|
D|----------------11--------------------------------11-----------|
A|------------------------------------------------------11-9-----|
E|-----------------------------------------------------------12--|

Solo- (cont.)
e|--------9------------------------------------|
B|------)----------------)---------------------|
G|-11-11----11-11-9----11~~~-------------------|
D|------------------11---------9----9----------|
A|-------------------------------11---11-9-----|
E|-----------------------------------------12--|
  \___________________________________________/
                   Play 3X

	
	E A D G B E

A5      5 7 7 x x x

B5      x 2 4 4 x x

Bsus4   x 2 4 2 5 x

B7      x 2 4 2 4 x 

B9      x 2 4 2 2 x

C5      x 3 5 5 x x

C#m     x 3 5 5 4 3

E5      0 7 9 9 x x

E       0 2 2 1 0 0

Esus4   0 2 2 2 0 0

F#5     2 4 4 x x x

F#m     2 4 4 2 x x

F#m7    2 4 2 2 x x

G#      4 6 6 5 x x

G#m     4 6 6 4 x x

G#5     4 6 6 x x x
Comments