Superdrag - Doctors Are Dead Chords & Tabs

 

Doctors Are Dead Chords & Tabs

Superdrag Chords & Tabs

Version: 1 Type: Tab 0 ratings
1 star 2 stars 3 stars 4 stars 5 stars
comments

Doctors Are Dead Tab

   
Doctors Are Dead
by John Davis
arr. by Superdrag

	the intro is played on piano, of course,
	but would probably sound fine on guitar
	and bass... the solo pretty much repeats
	the melody... enjoy!

intro:
e|-4--4--4--4--4--4--4--4--5--5--5--5--5--5--5--5--------|
B|-6--6--6--6--6--6--6--6--7--7--7--7--7--7--7--7--------|
G|-6--6--6--6--6--6--6--6--6--6--6--6--6--6--6--6--------|
D|-------------------------------------------------------|
A|-------------------------------------------------------|
E|-------------------------------------------------------|

e|-------------------------------------------------------|
B|-------------------------------------------------------|
G|-------------------------------------------------------|
D|-------------------------------------------------------|
A|-8------5-6-7-8---8-11-8-9-11-9---8-9---11-12-11-9-11--|
E|-9-----------------------------------------------------|

Part A:	C#           Fm7     F7     Bbm            Fm   
	In December, I can remember Summer's pharmacy

	       Em    Ebm               Ab
	But it takes time to arrange a reason

              C#maj7    F#maj7  C#maj7       F#maj7
	I get out of my bed, my doctor's are dead

Part A:
	In the morning, light was a warning, that she wore to me
	So we can feel the infatuation
	When the flowers are dried, with powders we'll fly

[ Tab from: http://www.guitartabs.cc/tabs/s/superdrag/doctors_are_dead_tab.html ]
Part B: Bbm           F7           Abm6       C#7
	In many ways, her holidays are holier now

                       F#      Ab   Fm           Bbm  Ab
	Still I wonder how she came covered in a capsule

	F#            Ab    Fm           Bbm Ab
	Called by her name, dazzled in a capsule

	F#         Ab     Fm         Bbm Ab
	Cold and decayed, on the colonnade

	   Ebm       F         F#   F#m7
	No heart, no heart, no heart

Part A:
	In a season, I see with treason, she was harmony
	But it takes time to rewrite the reason
	I go out of my head, I drown in my bed
	We awaken, only mistaken, there are vacancies
	And we can live on the insulation
	When the power goes out, I drown in my doubt

Part B:
	In many ways, her holidays, are holier now
	Still I wonder how she came covered in a capsule
	Called by her name, dazzled in a capsule
	Cold and decayed, on the colonnade
	No heart, no heart, no heart

Bridge:  F   F7  Bb  Ab  Ebm
	|/ / / /|/ / / /|/ / / /|/ / / /|
 
         Ab      Abaug   
	|/ / / /|/ / / /|




Weird Chords...

	   Abaug Abm6 C#maj7 F#maj7
	e|--x----4-------------------|
	B|--x----6-----6------11-----|
	G|--5----4-----5------10-----|
	D|--6----4-----6------11-----|
	A|--7----6-----4-------9-----|
	E|--4----4-------------------|




Comments