Superdrag - Diane Chords & Tabs

 

Diane Chords & Tabs

Superdrag Chords & Tabs

Version: 1 Type: Tab 0 ratings
1 star 2 stars 3 stars 4 stars 5 stars
comments

Diane Tab

   
Diane
by Husker Du
arr. by Superdrag
transcribed by A. Hromas

notes-
This is a Husker Du cover.  It begins with feedback and drums.
I'm not 100% sure on the intro/verse/chorus riff yet.
But I think I'm close... listen to the song.

intro/verse/chorus -
elec. guitar, loud dist. for intro/chorus
bass and soft dist. for verse
steady eighth notes...

the high part on the e and B strings is
not played on the same guitar, but I put
it on the same staff to save space and show
how it lines up.  It is played on the intro
only.
[ Tab from: http://www.guitartabs.cc/tabs/s/superdrag/diane_tab.html ]
  E5                      C5
e|-12-12-12----12-12----12----12-10-10-------10----|
B|-10-10-10----10-10----10----10--8--8-----8-----8-|
G|-------------------------------------------------|
D|-------------------------------------------------|
A|-14-14-14-14-14-14-14-14-10-10-10-10-10-10-10-10-|
E|-12-12-12-10-10-10-12-12--8--8--8--7--7--8--8--8-|

  D5
e|-10----10-----8-10----10-------10----------10----|
B|-----------------------------8-----8-----8-----8-|
G|-------------------------------------------------|
D|-------------------------------------------------|
A|-12-12-12-12-12-12-12-12-12-12-12-12-12-12-12-12-|
E|-10-10-10--8--8--8-10-10-10-10-10--9--9--9-10-10-|

Every once in a while, they'll throw in this little
note, it's tremolo picked. (meaning pick it as fast
as you can, alternating up and down.)

e|--15/17-17-17-17-17-17-15/17-17-17-17-17-17-|







Comments