Superdrag - Destination Ursa Major Chords & Tabs

 

Destination Ursa Major Chords & Tabs

Superdrag Chords & Tabs

Version: 1 Type: Tab 0 ratings
1 star 2 stars 3 stars 4 stars 5 stars
comments

Destination Ursa Major Tab

   
Destination Ursa Major
words and music by J. Davis
arr. by Superdrag

verse-with fig. 1

	B      C#m          E
	i'm so sensitive to light
	i may  never get it right all the bloody 
 	stupid miracles and lies guess it's up to
	you to have it  exorcised


i'm not sure about these chords....
with fig. 2
	what did i do?
	nothing is true
	whatever is over now
	sober is over now
[ Tab from: http://www.guitartabs.cc/tabs/s/superdrag/destination_ursa_major_tab.html ]
fig. 1
e|-----------------------------------|
B|----0---0---0----------------------|
G|----8---9--11----------------------|
D|----9---9---9----------------------|
A|-----------------------------------|
E|-----------------------------------|

fig. 2
e|---11---11---11---11---------------| (x2)
B|-9----9----9----9------------------|

e|---11---11---11---11---------------| (x2)
B|-8----8----8----8------------------|

e|---11---11---11---11---------------| (x2)
B|-7----7----7----7------------------|

e|---9---9---9---9-------------------| (x2)
B|-6---6---6---6---------------------|

e|---7---7---7---7-------------------| (x2)
B|-5---5---5---5---------------------|

e|-7-7-7-7-7-7-7-7-------------------| (x2)
B|-5-5-5-5-5-5-5-5-------------------|




Comments