Superdrag - Comfortably Bummed Chords & Tabs

 

Comfortably Bummed Chords & Tabs

Superdrag Chords & Tabs

Version: 1 Type: Tab 0 ratings
1 star 2 stars 3 stars 4 stars 5 stars
comments

Comfortably Bummed Tab

   
#----------------------------------PLEASE NOTE--------------------------------#
#This file is the author's own work and represents their interpretation of the#
#song. You may only use this file for private study, scholarship, or research.#
#-----------------------------------------------------------------------------#

Author/Artist: Superdrag
Title: Comfortably Bummed
Album: ???
Transcribed by: Alan Hromas
Email: arh1983@hotmail.com
[ Tab from: http://www.guitartabs.cc/tabs/s/superdrag/comfortably_bummed_tab.html ]
Intro: 
   E	
e|-------------------------------------
B|---9--9----9--9----9--9----9--9------
G|---9--9----9--9----9--9----9--9------
D|-9------10------11------12----------- 
A|-------------------------------------
E|-------------------------------------

  A 	    Am      E       B	
e|----5--5----5--5----------------------
B|----5--5----5--5----9--9----9--9------
G|--6-------5---------9--9----8--8-9-11-
D|------------------9-------9----------- 
A|--------------------------------------
E|--------------------------------------

Verse: Repeat intro

Chorus:
|E           E/Eb| C#m         B   |
|/ / / / / / / / | / / / / / / / / |

|A               | B7              |
|/ / / / / / / / | / / / / / / / / |


Comments