Superdrag - Bright Pavillions Chords & Tabs

 

Bright Pavillions Chords & Tabs

Superdrag Chords & Tabs

Version: 1 Type: Tab 0 ratings
1 star 2 stars 3 stars 4 stars 5 stars
comments

Bright Pavillions Tab

   
artist: superdrag 
title: bright pavillions 
album: in the valley of dying stars 
written: john davis 
tabbed by: aaron cooper 

this is my second fav superdrag song. its one of thier trippier ones. its in standard tuning but i think that the pitch of the entire song has been altered in-studio, because for some odd reason its nearly impossible to play along with the record and sound 100%. i could be stupid though. anyway on with the tabbing! 

G2: 357xxx 
C2: x357xx 
A2: x02200 

[intro interlude] 

e-------------------------- 
b---0----------0----------- 
g-----0---2------0---2-0--- 
d--0----------0------------ 
a-3------3---3------3-----5 X2 
E-------------------------- 

e--------------------------- 
b---0-----------0----------- 
g-----0---2-------0---2-0--- 
d--0-----------0------------ 
a--------------------------- X2 
E-3------3----3------3-----5 
[ Tab from: http://www.guitartabs.cc/tabs/s/superdrag/bright_pavillions_tab.html ]
[C2]"bum ba dum ba..[G2]to breath in bright pavillions" ..etc 

[A2]"i doooooo oooh ooh..[C2]love each of you.. 


[solo/interlude twin peaks thingy] 

G 
e---10-------10-----| 
b------10------10---| 
g-12-------12-------| 
d-------------------| 
a-------------------| X2 
E-------------------| 

Em 
e----------7-----7-----7------| 
b-7b(8)------8-----8-----8----| 
g-------9------9-----9-----9--| 
d-----------------------------| 
a-----------------------------| 
E-----------------------------| 

thats about it! the way i play it anyway.i hope you understood all of that. im not that great at writting tab but if you seen me play it you would get it pretty fast. during the intro (and pretty much the whole song) brandon plays some whammy bar tricks that sound almost like samples, i dont know what he's doing there, but i guess thats why he's brandon! always doing ambient noises like the genius he is! Enjoy! 
comments,corrections, email me at cooperdrag@hotmail.com
Comments