Superdrag - Bastards Of Young Chords & Tabs

 

Bastards Of Young Chords & Tabs

Superdrag Chords & Tabs

Version: 1 Type: Tab 0 ratings
1 star 2 stars 3 stars 4 stars 5 stars
comments

Bastards Of Young Tab

   
#----------------------------------PLEASE NOTE--------------------------------#
#This file is the author's own work and represents their interpretation of the#
#song. You may only use this file for private study, scholarship, or research.#
#-----------------------------------------------------------------------------#

Author/Artist: Superdrag
Title: Bastards Of Young
Album: Greetings From Tennessee
Transcribed by: Alan Hromas
Email: arh1983@hotmail.com

Note: If played in standard tuning, this tab
	will sound 1/2 step off the recording,
	Use a capo or adjust tuning to match.
[ Tab from: http://www.guitartabs.cc/tabs/s/superdrag/bastards_of_young_tab.html ]
Intro:	   Fmaj7            C 
	e|-0-3---0--3--0-0--0-3--0-3--0-0--0-|
	B|-1-1---1--1--1-3--1-1--1-1--1-1--3-|
	G|-2-2---2--2--2----0-0--0-0--0-0----|
	D|-3-3---3--3--3----2-2---------2----|
	A|------------------3-----------3----|
	E|-----------------------------------|

Chorus: 
	|Am	|C	|Am	|G	|
	|///////|///////|///////|///////|

	|F	|G	|C	|
	|///////|///////|///////|

Chorus: (with intro riff)
	|Fmaj7	|	|C	|   *	|
	|///////|///////|///////|///////|

	|F	|G	|C	|	| - last time for C play:
	|///////|///////|///////|///////|   G|--9--7----9--7-------|					    				    D|-------10------10----|
Chorus Tag: (god don't want to name us)
	|Dm	|G	|Am	|Bb	|
	|///////|///////|/ / ///|/	|
	

*Lead fill played over C during chorus:
	e|--------------------------|
	B|--------------------------|
	G|--9--7--------------------|
	D|-------9--7---------------|
	A|------------10------------|
	E|--------------------------|

End on E5 vamp


		
Comments