Superdrag - Annetichrist Chords & Tabs

 

Annetichrist Chords & Tabs

Superdrag Chords & Tabs

Version: 1 Type: Tab 0 ratings
1 star 2 stars 3 stars 4 stars 5 stars
comments

Annetichrist Tab

   
#----------------------------------PLEASE NOTE--------------------------------#
#This file is the author's own work and represents their interpretation of the#
#song. You may only use this file for private study, scholarship, or research.#
#-----------------------------------------------------------------------------#

Author/Artist: Superdrag
Title: Annetichrist
Album: Head Trip In Every Key
Transcribed by: Alan Hromas
Email: arh1983@hotmail.com

Intro:
  Dmaj7     C#
e|-------------------------------------|
B|-------------------------------------|
G|-6--4--------------------------------|
D|-x--x--7--6----6---7---7-------------|
A|-5--5-----4--4---4---4---4-----------|
E|-------------------------------------|

Verse: 
     (W/intro fig.)
     I've got a line 
     I can't find the rhyme
     Nullify my time 

[ Tab from: http://www.guitartabs.cc/tabs/s/superdrag/annetichrist_tab.html ]
Chorus:
     Dmaj7   
     Annetichrist 
     Dead sensation 
     
     Amaj7
     Coldest ice my 
     hallucination 

     Dmaj7
     Crazy how my 
     nerves were severed 
     
     Amaj7                        C#sus   C#
     Burning now and burn forever here


Solo:    wah: *   *   *   *
e|---------------------------------------------------12-----------|
B|-----------------------------------5--7--10--12b14---14r12-10---|
G|------------676-676-676-676--6-7-6------------------------------|
D|-6--4----6-----7---7---7---7------------------------------------|
A|-------7--------------------------------------------------------|
E|----------------------------------------------------------------|

e|-------12-------------------|-------12--------
B|-12b14----14r12-10-10-12-10-|-12b14---14r12---
G|----------------------------|-----------------
D|----------------------------|-----------------
A|----------------------------|-----------------
E|----------------------------|-----------------
  repeat 4x                    repeat 4x
Comments